Rhoads Randy - Crazy Train Correct Chords & Tabs

 

Crazy Train Correct Chords & Tabs

Rhoads Randy Chords & Tabs

Version: 1 Type: Tab 7 ratings
1 star 2 stars 3 stars 4 stars 5 stars
comments

Crazy Train Correct Tab

   
   CRAZY TRAIN:100% CORRECT(GET THE RYTHM )
   
   2!-NATURAL HARMONIC/       
   /=SLIDE,PIC SCRATCH DOESNT MATTER HERE
   20T-FINGER TAP /             
   24X-PALM MUTE 24TH FRET         
   4B-BEND 4TH FRET
   60p67h-hammer on and pull of
[ Tab from: http://www.guitartabs.cc/tabs/r/rhoads_randy/crazy_train_correct_tab.html ]
   
   INTRO: PALM MUTE THE 000 IN THE RYTHM BELOW
 
 E----------------------------------- -------------------------------
 G-----------------------------------  3-------5----5----3---2-2!----
 B----------------------------------- -2-1-----6----4----2---2-------
 D----------------------------------- -0-2-----7----6----4---2-------
 A----4-5-4-2---2------4-5-4-20-020-- ---2-000---000--000--00--------
 E--22-2-2-2-545-540-22-2-2-2--4---40 -------------------------------
 
 E--/---------------------5!----------------------------
 G-/----------------------5-!---------------------------
 B-/--------5/7!----------5-!--2X-----------------------
 D-/-4---4--------4-----4-5-!--2X--------2--------------
 A--/4---4--------4-----4------0X--------2--------------
 E-/-2-0-2--------2---0-2-----------4--2-0--------------

 E--------2--------------------------------------------------
 B-----2---5-2-3-2--2----------------------------------------
 G-4b-------------5---5-4-2---2------------------------------
 D--------------------------4---4-2---2----------------------
 A----------------------------------4---4-3p2h3p2h3p2p3p2----
 E---------------------------------------------------------5-
 
 E---------------------------------
 G---------------------------------
 B---------2-----------7--9--------
 D -4---4--2-2-4----4--7--9--------
 A -4---4--0-2-4----4--5--7--------
 E -2-0-2----0-2-0-2---------------
 
   SOLO!!!!!      
 
 E--------------------------------------------------------------------------------------------
 B--7-10-14T--< 3 SECONDS---7-10-15T---< 3 SECONDS---9H12P9-
Comments