Rhoads Randy - Crazy Tain Solo Chords & Tabs

 

Crazy Tain Solo Chords & Tabs

Rhoads Randy Chords & Tabs

Version: 1 Type: Tab 0 ratings
1 star 2 stars 3 stars 4 stars 5 stars
comments

Crazy Tain Solo Tab



e---------------------------------------------------------------- 
B---14p7h10po7h10-14p7-14p7h10p7h10--14p7--14p7h10p7h10--14p7----
G---------------------------------------------------------------- 
D---------------------------------------------------------------- 
A---------------------------------------------------------------- 
E---------------------------------------------------------------- 

e---------------------------------------------------------------- 
B-14p7h10p7h10--15p7--15p7h10p7h10--15p7--15p7h10p7h10--15p7----- 
G---------------------------------------------------------------- 
D---------------------------------------------------------------- 
A---------------------------------------------------------------- 
E---------------------------------------------------------------- 

e---------------------------------------------------------------- 
B-15p7h10p7h10--15p10p7-------10-7h10p7--9h10p9------------------ 
G-----------------------10-11---10---------------9s7-9bu(11)-----
D---------------------------------------------------------------- 
A---------------------------------------------------------------- 
E---------------------------------------------------------------- 

e------------------17-16-14------------14-16-17-17bu(19)-14-17p14 
B--10------------------------17bu(19)---------------------------- 
G-----9bu(11)---------------------------------------------------- 
D---------------------------------------------------------------- 
A---------------------------------------------------------------- 
E---------------------------------------------------------------- 

e-----14--------------------------------------------------------- 
B--17----17p15p14--15p14----14------------------15--15----------- 
G------------------------16----16p14--16bu(18)----------14-14h16- 
D---------------------------------------------------------------- 
A---------------------------------------------------------------- 
E---------------------------------------------------------------- 
[ Tab from: http://www.guitartabs.cc/tabs/r/rhoads_randy/crazy_tain_solo_tab.html ]
e--------14h17p14-----h17p14h18p15h18p15h18p16h19s21p17-21h18p21- 
B-14h17---------------------------------------------------------- 
G---------------------------------------------------------------- 
D---------------------------------------------------------------- 
A---------------------------------------------------------------- 
E---------------------------------------------------------------- 

e-----19p17s16--xh19p16h19p16h19p16h19p16h19p16h19p16--14h15p14-- 
B---------------------------------------------------------------- 
G---------------------------------------------------------------- 
D---------------------------------------------------------------- 
A---------------------------------------------------------------- 
E---------------------------------------------------------------- 

e--------------17----------17------------------------------------ 
B--17-17bu(19)----17bu(19)----17bu(19)-15-14------14----------14- 
G---------------------------------------------16-----16p14h16---- 
D---------------------------------------------------------------- 
A---------------------------------------------------------------- 
E---------------------------------------------------------------- 

e---------------------------------------------------------------- 
B-----------------------------------------------------------~~~~~ 
G-----------14----------14------------13-14-13-14-13h14p13---16-- 
D--16p14h16----16p14h16----16p14h16------------------------------ 
A---------------------------------------------------------------- 
E---------------------------------------------------------------- 

e---------------------------------------------------------------- 
B-~~~~~~-------------------------------------------------14h16h17 
G-----------------------------------------------13h14h16--------- 
D----------------------------11h13h14-13h14h16------------------- 
A------------------11h12h14-------------------------------------- 
E---------11h12h14----------------------------------------------- 

e--14-------19bu(21)--19bu(21)bd(19)~~~~~~-----------------------
B-----17s19------------------------------------------------------
G----------------------------------------------------------------
D----------------------------------------------------------------
A----------------------------------------------------------------
E---------------------------------------------------------------- 
Comments