Rhetoric - So Far Away From Me Chords & Tabs

 

So Far Away From Me Chords & Tabs

Rhetoric Chords & Tabs

Version: 1 Type: Tab 0 ratings
1 star 2 stars 3 stars 4 stars 5 stars
comments

So Far Away From Me Tab

Hey Guys, I'm the guitarist of Rhetoric and I get heaps of mail, 
asking me for the tabs for this song so here they are.
Enjoy!!!
e-mail me at jake_sarchet@hotmail.com


Intro...
--------------------------------------------------------
--------------------------------------------------------
-----4-----------4-----------4--------4---4---Repeat twice
---5---5---5---5---5---5---5---5---5--5---5--------------
-3-------3-----------------------------------------------
-------------3-------3---2-------2----0----2------------

Verse...

---------------------------------------------------------
---------------------------------------------------------
9xxxxxxx-------------------------------------------------
9xxxxxxx-9xxxxxxx-11xxxxxxx-7xxxxxxx--------repeat 2
7xxxxxxx-9xxxxxxx-9 xxxxxxx-7xxxxxxx---------------------
---------7xxxxxxx-9 xxxxxxx-5xxxxxxx---------------------

pre chorus...
[ Tab from: http://www.guitartabs.cc/tabs/r/rhetoric/so_far_away_from_me_tab.html ]
---------------------------------------------------------
---------------------------------------------------------
9--------------------------------------------------------
9ring----9--------11--------7--------repeat x1-----------
7--------9ring----11ring----7ring------------------------
---------7---------9--------5----------------------------

Chorus...

---------------------------------------------------------
---------------------------------------------------------
---------------------------------------------------------
9999999999999999-7777777777777777-Repeatx3---------------
9999999999999999-7777777777777777------------------------
7777777777777777-5555555555555555------------------------

For the final piece of the chorus you play this...

---------------------------------------------------------
---------------------------------------------------------
---------------------------------------------------------
9999999999999997-----------------------------------------
7777777777777775-when your so far away from me-----------
7777777777777775-----------------------------------------

thanks guys enjoy, have fun.
Comments