Reynolds Tim - Valley Of Flowers Chords & Tabs

 

Valley Of Flowers Chords & Tabs

Reynolds Tim Chords & Tabs

Version: 1 Type: Tab 0 ratings
1 star 2 stars 3 stars 4 stars 5 stars
comments

Valley Of Flowers Tab

   
Valley Of Flowers
By Tim Reynolds


Drop D Tuning


Part A:
|-----8-----7----------0-------0-------------8-----7-----------0------------|
|-------8-----7----8-------7-------------------8-----7----7-----------------|
|---------9-----9----11------11------------------9-----9----11---7----------|
|---------------------------------------------------------------------------|
|---------------------------------------------------------------------------|
|--0------------------------------4--5--7--0--------------------------------|


|------6-----5----------0------0-------------6-----5----------0-------------|
|--------6-----6----6------8-------------------6-----6----6----------------:|
|----------9-----9----10-----10------------------9-----9----10---7----------|
|---------------------------------------------------------------------------|
|--------------------------------------------------------------------------:|
|---0-----------------------------3--5--7--0--------------------------------|


Part B:
|---------2--2--3p2p0------0-------3------3-----3--2-2-5p3p2p0-3p2p0--------|
|---------3--3--------3---3---3---------3---3---3--3-3--------------3-------|
|---------2--2----------3-------------3---------3--2-2----------------------|
|-------0-------------------------------------------------------------------|
|-----0---------------------------------------------------------------------|
|--0-------0--------------------5-------------5-----------------------------|


|-----------2--2--3p2p0------0-------3------3-----3-3s5-5--5s3-3------------|
|-----------3--3--------3---3---3---------3---3-----3s5-5--5s3-3------------|
|-------2---2--2----------3-------------3-------3---3s5-5--5s3-3------------|
|----0--0-------------------------------------------------------------------|
|----0--0-------------------------------------------------------------------|
|--0---------0---------------------5----------------------------------------|


|-----------2--2--3p2p0------0-------3------3------3--2-2----------0h2h3h5--|
|-----------3--3--------3---3---3---------3---3----3--3-3---0h2h3h5---------|
|-------2---2--2----------3-------------3-------3--3--2-2-------------------|
|----0--0-------------------------------------------------------------------|
|----0--0-------------------------------------------------------------------|
|--0---------0---------------------5----------------------------------------|


|-----------2--2--3p2p0------0--------3-----3---------6-------------10-------15-------|
|-----------3--3--------3---3---3---------3---------8---8--------11-------11----15s17-|
|--------2--2--2----------3-------------3-----3-4s7-------7-8s12-------12-------------|
|----0---0----------------------------------------------------------------------------|
|----0---0----------------------------------------------------------------------------|
|--0---0-----0---------------------5--------------------------------------------------|

[ Tab from: http://www.guitartabs.cc/tabs/r/reynolds_tim/valley_of_flowers_tab.html ]
Part C:
|----|----------------------------------------------------------------------|
|----|:--3s5-5---3s5-5--------------------3s5-5---3s5-5--------------------:|
|----|---4s5-5---4s5-5------5--4--2-------4s5-5---4s5-5-------5--4--7-------|
|--x-|----------------------------------------------------------------------|
|--x-|:--------------------3--2--0--------------------------3--2-s5--------:|
|--x-|---------0-------0------------3bp0--------0--------0-------------0----|


|---------------------------------------------------------------------------|
|--0--1s3-3----------------------0--1--3--5--------------------------------:|
|--0--2s4-4----------------------0--2--4--5---------------------------------|
|---------------------------------------------------------------------------|
|-----------------------------------------------0--3--5--7-----------------:|
|-----------0-0--5--7--9--9--0-x-------------0-------------0-0--------------|


Part D:
|--------0-----3--0-------------------1-----3--1----------------------------|
|------1---1--------1---3--1--------1---1--------1-------------------------:|
|----0-------0--------0-----------2-------2--------2------------------------|
|--2-------------------------0--3---------------------0---------------------|
|--------------------------------------------------------------------------:|
|---------------------------------------------------------------------------|


Part E:
|-----------2--2--3p2p0-----------------------------------------------------|
|-----------3--3------------------------------------------------------------|
|-------2---2--2-------------------Part A-----------------------------------|
|----0--0-------------------------------------------------------------------|
|----0--0-------------------------------------------------------------------|
|--0---------0--------------------------------------------------------------|


End:
|----------2--2--3p2p0------0-------3------3-----3--2-2-5p3p2p0-3p2p0----2--|
|----------3--3--------3---3---3---------3---3---3--3-3---------------3--3--|
|-------2--2--2----------3-------------3---------3--2-2------------------2--|
|----0--0----------------------------------------------------------------0--|
|----0--0----------------------------------------------------------------0--|
|--0--------0--------------------5-------------5-------------------------0--|


Other way that Tim plays the second piece of part B in the rest of the song:
|-----------2--2--3p2p0------0-------3------3-----3-3s5--5h6h8p6p5h6p5------|
|-----------3--3--------3---3---3---------3---3-----3s5---------------8-7---|
|-------2---2--2----------3-------------3-------3---3s5---------------------|
|----0--0-------------------------------------------------------------------|
|----0--0-------------------------------------------------------------------|
|--0---------0---------------------5----------------------------------------|

The progression of the song is:
Part A
Part B
Part C
Part B
Part D
Part E
Part B
Part C
End

Tim plays this with a 12 string acoustic which gives it very big sound.
Try playing parts A,C,and D with a little bit of reverb for an even
bigger sound.  Please let me know what you think and if you have any
requests for other songs that have not been tabbed (correctly).  


Comments