Reynolds Tim - Stranger In A Strained Land Chords & Tabs

 

Stranger In A Strained Land Chords & Tabs

Reynolds Tim Chords & Tabs

Version: 1 Type: Tab 0 ratings
1 star 2 stars 3 stars 4 stars 5 stars
comments

Stranger In A Strained Land Tab

Stranger In A Strained Land
By Tim Reynolds
Tabbed By Mark Schmitz

Tuning: Standard


e---3-5-7-8--------5-7-8-10-------3-5-7-8--------7-5-3h5p3-1--
B---0-5-5-7--------5-5-7-8--------0-5-5-7--------5-5----------
G-------------------------------------------------------------
D----------------5------------5---------------5---------------
A---0-0-0-0--0-5---0-0-0-0--0---5-0-0-0-0-0-5----0-0-0-0-0-0--
E-------------------------------------------------------------


e---3-5-7-8--------5-7-8-10-------3-5-7-8--------7-5-3h5p3-1--
B---0-5-5-7--------5-5-7-8--------0-5-5-7--------5-5----------
G-------------------------------------------------------------
D----------------5------------5---------------5---------------
A---0-0-0-0--0-5---0-0-0-0--0---5-0-0-0-0-0-5----0-0-0-0-0-0--
E-------------------------------------------------------------
[ Tab from: http://www.guitartabs.cc/tabs/r/reynolds_tim/stranger_in_a_strained_land_tab.html ]

e---5-3-1h3p1-0---
B---5-0-----------
G-----------------
D-----------------
A---0-0-0-0-0-0---
E-----------------


e--------8-128------------------------7-10p7------------------
B-----10--------10-----8-------------8--------8-----6----------
G---9--------------9-7-------------7------------7-5------------
D-----------------------------5----------------------------5---
A---0----0----0---0----0--0-5------0---0---0----0---0--0-5-----
E--------------------------------------------------------------


e------5-8p5---------------------------------
B----6-------6-----5---------------5p3-------
G--5-----------5-4-----------2-4-5-----2-2---
D-------------------------5------------------
A--0---0---0---0---0--0-5--------------------
E--------------------------------------------


check out http://www.timreynolds.com/tablature/ for more tim tabs.
Comments