Reynolds Tim - Los Alamos Is Burning Chords & Tabs

 

Los Alamos Is Burning Chords & Tabs

Reynolds Tim Chords & Tabs

Version: 1 Type: Tab 0 ratings
1 star 2 stars 3 stars 4 stars 5 stars
comments

Los Alamos Is Burning Tab

Los Alamos Is Burning
By Tim Reynolds
Tabbed By Adam Garrett

Tuning: Standard


Rhy. Fig. 1
e--------------------------------
B----------------------------0---
G-----0~---------------------0---
D-------------------4--------4---
A--2--------------3----------3---
E-------0-0-0-3/------0-0-0------

e--------------------------------------
B-------------------------0------------
G-----0~--------------0-2---2p0--------
D-------------------4-----------4------
A--2--------------3---------------3-2--
E-------0-0-0-3/-----------------------

e--------------------------------
B----------------------------0---
G----------------------------0---
D-------------------4--------4---
A-----------------3----------3---
E-------0-0-0-3/------0-0-0------
[ Tab from: http://www.guitartabs.cc/tabs/r/reynolds_tim/los_alamos_is_burning_tab.html ]
e------------------------------------------|
B------------------------------------------|
G--0-2-4-0-----------h2-0------------------|
D-------------------------2-4--------------|
A--------2---------------------------------|
E--0-------0-0-0-3/7--0-----0--0-0-0-3/10--|


Rhy. Fig. 2
e-------------------3--------------
B--3--3---------3-5----------3-3---
G--2--2--------------------2---2---
D--0--0------------------0-----0---
A----------------------5-----------
E-------0-0-0---0---0--------------


e------------
B--3-5-7-----
G--------5---
D------------
A------------
E--0-----0---

Rhy. Fig. 3 (Improv Section)
e--------
b--------
g-5-4-0--
d-2-0-4--
a-3-2-2--
E-5-3-0--

Cool lick:
e---------------------------------------0--0-0-0--0-0-0-
b--------------------------0000000000000-00-0-0-00-0-0--
g-555555555555/44444444444-----------------------0------
d-----2-----2------0-----0-----4-----4-----4------------
a---3-----3------2-----2-----2-----2-----2-----2--------
E-5-----5------3-----3-----0-----0-----0-----0----------


check out http://www.timreynolds.com/tablature/ for more tim tabs
Comments