Reynolds Tim - Jemenz Rolling Waves Chords & Tabs

 

Jemenz Rolling Waves Chords & Tabs

Reynolds Tim Chords & Tabs

Version: 1 Type: Tab 0 ratings
1 star 2 stars 3 stars 4 stars 5 stars
comments

Jemenz Rolling Waves Tab

   
Jemez Rolling Waves
By Tim Reynolds
Tabbed By Luke David

Tuning: Standard


When playing this song, only hold each note for as long as it ought to be 
played.  Sounds somewhat redundant, but the attraction of this song is the 
lack of sustain to each note, save the transition from Part B to C and the 
entirety of section C...the more punctual and 'one-note-at-a-time' you play 
Part A, the more flowing C will sound, which is the point.


Part A

e-----7-|-----------------|--------------5-|-----------------|--------------7
B---5---|-----------------|------------5---|-----------------|------------5--
G-4-----|-----------------|----------4-----|-----------------|----------4----
D-------|-----------------|----------------|-----------------|---------------
A-------|-----5-----5-----|/7---7~~~-------|-----5-----5-----|/7---7~~~------
E-------|-5-5---3-3---0-0-|---0------------|-5-5---3-3---0-0-|---0-----------


e-----------------|-----------7-5p3p0-|-----------------|--------------7-|
B-----------------|---------5---------|-----------------|------------5---|
G-----------------|-------4-----------|-----------------|----------4-----|
D-----------------|-------------------|-----------------|----------------|
A-----5-----5-----|/7---7-------------|-----5-----5-----|/7---7~~~-------|
E-5-5---3-3---0-0-|---0---------------|-5-5---3-3---0-0-|---0------------|

[ Tab from: http://www.guitartabs.cc/tabs/r/reynolds_tim/jemenz_rolling_waves_tab.html ]
e-----------------|--------------5-|-----------------|--------------7-|
B-----------------|------------5---|-----------------|------------5---|
G-----5-----4-----|-0---0----4-----|-----5-----4-----|/7---7~~~-4-----|
D-----5-----5-----|-2---2----------|-----5-----5-----|/9---9~~~-------|
A-----------------|----------------|-----------------|----------------|
E-5-5---3-3---0-0-|----------------|-5-5---3-3---0-0-|---0------------|

 
e-----------------|-----------7-5p3p0-|-----------------|
B-----------------|---------5---------|-----------------|
G-----5-----4-----|-0---0-4-----------|-----5-----4-----|
D-----5-----5-----|-2---2-------------|-----5-----5-----|
A-----------------|-------------------|-----------------|
E-5-5---3-3---0-0-|-------------------|-5-5---3-3---0-0-|


Part B

e--0---0-0-----------------|--0---0-0-----------------|
B-/5---3-0-----------------|-/5---3-0-----------------|
G-/4---4-4-----------0-----|-/4---4-4-------------0---|
D----------------2-----2---|----------------2---4-----|
A--------------2---2-------|--------------2---3-------|
E------------0-------------|------------0-------------|
Repeat with variations...on last repeat sustain 
the C5add#4 (last three notes)


Part C

e---------------|---------------|---------------|---------------|
B---0-3-0-3/5---|---0-3-0-3/5---|---0-3-0-3/5---|---3---3-------|
G---0-2-0-2/4---|---0-2-0-2/4---|---0-2-0-2/4---|---2---2-------|
D---------------|---------------|---------------|---0---0-------|
A-2-2-2-2-------|-0-0-0-0-------|---------------|---------------|
E---------------|---------------|-3-3-3-3-------|-0-3---2-------|


check out http://www.timreynolds.com/tablature/ for more tim tabs.
Comments