Reynolds Tim - Hopeful Heresy Chords & Tabs

 

Hopeful Heresy Chords & Tabs

Reynolds Tim Chords & Tabs

Version: 1 Type: Tab 0 ratings
1 star 2 stars 3 stars 4 stars 5 stars
comments

Hopeful Heresy Tab

Hopeful Heresy 
By Tim Reynolds

This is Basic Compared to what Tim actually plays. He changes it up 
every time he plays...so it'll be a little different. 


Standard Tuning


Part 1
e-----------------------------------------------------------------------------------
B--0-1-1-x----------1---0-1-3-x----------1--0-1-3-x----------3--3p0--0----------1---
G--0-0-0-x----------2---0-0-0-x----------2--0-0-0-x-------------2----0----------2---
D--------x---------(3)--------x---------(3)-------x----------0-----------------(3)--
A-----------3p0---3--------------3p0---3-------------3p0---0----3-------3p0---3-----
E----3----------1---------3----------1--------3----------1-----------3------1-------

[ Tab from: http://www.guitartabs.cc/tabs/r/reynolds_tim/hopeful_heresy_tab.html ]
Part 2
e---------------------------------------
B------3----3-3-3-3--3--3/5--1-------1--
G--2p0------0-0-0-0--0--0----2-------2--
D---------------------------------------
A--------x------2-3-------------x-------
E--------x--3--------3-------1--x--1----


e---------------------------------------
B------3----3-3-3-3-3-3p1p0----3-----1--
G--2p0------0-0-0-0------------0-----2--
D---------------------------------------
A--------x------2-3----------0---x------
E--------x--3----------------3---x-1----


fill/Riff 3
e-----------0------------------------
B----0------0----------0----------0--
G----4------4----------4--2-------2--
D--2------2--------0h2----------3----
A-------2------0-2------------3------
E---------------------------1--------


Part 4
e-------------------------------
B----5--5-5---5--3-5-3-1-3-1-0--
G--2----5-5---5--4-5-4-2-2-2-2--
D-------------------------------
A-----------5----2---2----------
E------------------5---1-1-1-1--
            
Then of course the improve

Comments