Revs - Wired To The Moon Chords & Tabs

 

Wired To The Moon Chords & Tabs

Revs Chords & Tabs

Version: 1 Type: Tab 0 ratings
1 star 2 stars 3 stars 4 stars 5 stars
comments

Wired To The Moon Tab

Revs - Wired to the moon
Tabbed By: Stephen Kane
EMail: kano476@hotmail.com

[ Tab from: http://www.guitartabs.cc/tabs/r/revs/wired_to_the_moon_tab.html ]
Verse 
e---------------------------- 
B---------------------------- 
G----55---------------------- 
D--3333----55----33---------- 
A--3333--3333--1111---------- 
E--------3333--1111----------Chorus 
e------------------------------- 
B------------------------------- 
G---------*-*-5-5--*-*--3-3----- 
D*-*-3-3--*-*-5-5--*-*--3-3----- 
A*-*-3-3--*-*-3-3--*-*--1-1----- 
E*-*-1-1------------------------ 

I think thats right i could be wrong though.
Comments