Revolverheld - Spinner Chords & Tabs

 

Spinner Chords & Tabs

Revolverheld Chords & Tabs

Version: 1 Type: Bass Tab 0 ratings
1 star 2 stars 3 stars 4 stars 5 stars
comments

Spinner Bass Tab

G||--------------------|--4--------4----6-----||---------------------|
D||-----------4--------|---------------------*||*--0--------4--------|
A||--5-----------------|---------------------*||*--------------------|
E||--------------------|----------------------||---------------------|


                   4x    
--4--------4----6-----||-----------------2-4--|--2----------------|
---------------------*||--4------------4------|-------------------|
---------------------*||----------------------|-------------------|
----------------------||----------------------|-------------------|


    
-----------4--------|-----------2--------|-----------4--------|
--2-----------------|--4-----------------|--4-----------------|
--------------------|--------------------|--------------------|
--------------------|--------------------|--------------------|


  
-----------2--------|--------------------|--4--------4----6----|
--4-----------------|--0--------4--------|---------------------|
--------------------|--------------------|---------------------|
--------------------|--------------------|---------------------|

[ Tab from: http://www.guitartabs.cc/tabs/r/revolverheld/spinner_btab.html ]
                                         4x      
|---------------------|--4--------4----6-----||-----------------2-4--|
|*--0--------4--------|---------------------*||--4------------4------|
|*--------------------|---------------------*||----------------------|
|---------------------|----------------------||----------------------|


       
--2----------------||------------4--------|-----------2--------|
-------------------||*--2-----------------|--4-----------------|
-------------------||*--------------------|--------------------|
-------------------||---------------------|--------------------|


         
-----------4--------|-----------2---------||--------------------|
--4-----------------|--4-----------------*||--0--------4--------|
--------------------|--------------------*||--------------------|
--------------------|---------------------||--------------------|


     
--4--------4----6----|-------|-------|-------|-------|-----------4--------|
---------------------|-------|-------|-------|-------|--2-----------------|
---------------------|-------|-------|-------|-------|--------------------|
---------------------|-------|-------|-------|-------|--------------------|

         
-----------2--------|-----------4--------|-----------2--------||
--4-----------------|--4-----------------|--4-----------------||
--------------------|--------------------|--------------------||
--------------------|--------------------|--------------------||
Comments