Revolverheld - Rock N Roll Chords & Tabs

 

Rock N Roll Chords & Tabs

Revolverheld Chords & Tabs

Version: 1 Type: Tab 0 ratings
1 star 2 stars 3 stars 4 stars 5 stars
comments

Rock N Roll Tab

First of all the tuning:

e|---
B|---
G|---
D|---
A|---
D|---


INTRO & CHORUS

|----------------------------|------------------------------|
|----------------------------|------------------------------|
|----------------------------|------------------------------| x2
|-0--0-0-5-3-0-0-----0--x-3--|-8-8-8-8-8-8-8--5-5-5-5-5-5-5-|
|-0--0-0-5-3-0-0-----0--x-3--|-8-8-8-8-8-8-8--5-5-5-5-5-5-5-|
|-0--0-0-5-3-0-0-----0--x-3--|-8-8-8-8-8-8-8--5-5-5-5-5-5-5-|


|------------------------------------|
|------------------------------------|
|------------------------------------|
|-10-10-10-10-x-11-11-11-11-11-11-11-|
|-10-10-10-10-x-11-11-11-11-11-11-11-|
|-10-10-10-10-x-11-11-11-11-11-11-11-|


VERSE
[ Tab from: http://www.guitartabs.cc/tabs/r/revolverheld/rock_n_roll_tab.html ]
|---------------------------|---------------------------------------|
|---------------------------|---------------------------------------|
|---------------------------|---------------------------------------|
|-0--0-0---0--0-0---0-0-0-0-|-8-8-8-8-8-8-8-8--10-10-10-10-10-10-10-|
|-0--0-0---0--0-0---0-0-0-0-|-8-8-8-8-8-8-8-8--10-10-10-10-10-10-10-|
|-0--0-0---0--0-0---0-0-0-0-|-8-8-8-8-8-8-8-8--10-10-10-10-10-10-10-|


OTHER PART

|----------|----------------------------|
|----------|----------------------------|
|----------|----------------------------|
|-----12\0-|-0--0-0-5-3-0-5-3-0-5-3-0-1-|
|-----12\0-|-0--0-0-5-3-0-5-3-0-5-3-0-1-|
|-----12\0-|-0--0-0-5-3-0-5-3-0-5-3-0-1-|


Very cool song, have fun!!!

Comments