Revolverheld - Mit Dir Chilln Chords & Tabs

 

Mit Dir Chilln Chords & Tabs

Revolverheld Chords & Tabs

Version: 2 Type: Tab 0 ratings
1 star 2 stars 3 stars 4 stars 5 stars
comments

Mit Dir Chilln Tab

   
-----------------------------------------------------------------------------                           
                               Mit dir chill'n                                 
                                Revolverhelde
-----------------------------------------------------------------------------


Gtr 1
        ^                     ^                      ^                 
        W                     W                      W                 
D#||--<>5----------------|--<>7----------------|--<>12----------------|
A#||--<>5----------------|--<>7----------------|--<>12----------------|
F#||--<>5----------------|--<>7----------------|--<>12----------------|
C#||--<>5----------------|--<>7----------------|--<>12----------------|
G#||---------------------|---------------------|----------------------|
D#||---------------------|---------------------|----------------------|


                        VORSPIEL+STROPHEN                        
                        Em                         G/h           
  W                     E                 E  E  E  E   E  E  E   
--L----------------||-------------------------------------------|
--L----------------||------------------------0---------L--3-----|
--L----------------||*--------------------------0--L---0-----0--|
--L----------------||*--------------------2---------------------|
-------------------||------------------------------2---------L--|
-------------------||---0-----------------------L---------------|


  Cadd9                         Em          G/h           
  E     E  E  E  E  E  E  E     E  E  E  E  E   E  E  E   
-----------------3-----2--0--|---------------------------|
--L-----3--------L--3--------|--------0---------L--3-----|
--L--------0--------L--------|-----------0--L---0-----0--|
--------------2-----L--------|-----2---------------------|
--3-----------------------L--|--------------2---------L--|
-----------------------------|--0--------L---------------|


                                   REFRAIN                       
  Cadd9                            Cadd9                         
  E     E  E  E  E  E  E  E   6x   E       E  E  E  E  E  E  E   
------------------------------||--------------------------------|
--------3-----L--3-----1--0---||-----------3-----L--3--------L--|
-----------0-----L--0-----L--*||*-------------0-----L--0-----0--|
--------------2-----------L--*||*----------------2-----L--2-----|
--3-----------------------L---||---3-------------------------L--|
------------------------------||--------------------------------|

[ Tab from: http://www.guitartabs.cc/tabs/r/revolverheld/mit_dir_chilln_tab_ver_2.html ]
  Cadd9                         Em7                       
  E     E  E  E  E  E  E  E     E   E  E  E  E  E  E  E   
-----------------------------|---------------------------|
--------3-----L--3--------L--|------3-----L--3--------L--|
-----------0-----L--0-----0--|---------0-----L--0-----0--|
--------------2-----L--2-----|------------2-----L--2-----|
--3-----------------------L--|---------------------------|
-----------------------------|--0---------------------L--|


                                BRIDGE                       
  D                             Em7                          
  E  E  E  E  E  E  E  E   4x   E      E  E  E  E  E  E  E   
---------------------------||-------------------------------|
-----3-----L--3--------L---||----------3-----L--3--------L--|
--------2-----L--2-----2--*||*------------0-----L--0-----0--|
--0-----L--0-----L--0-----*||*---------------2-----L--2-----|
---------------------------||-------------------------------|
---------------------------||---0------------------------L--|


  Cadd9       Dsus2                  A7sus4                       
  E     E  E  E     E  E  E  E   7x  E      E  E  E  E  E  E  E   
--------------------0--------L---||------------------------------|
--------3-----L--------3-----3---||---------3-----L--3--------L--|
-----------0--------------2-----*||------------0-----L--0-----0--|
--------------0--------------L--*||---------------2-----L--2-----|
--3--------L---------------------||--0------------------------L--|
---------------------------------||------------------------------|


  G/h                         Cadd9                         Cadd9             
                                                            ^                 
  E   E  E  E  E  E  E  E     E     E  E  E  E  E  E  E     W                 
---------------------------|-----------------------------|--0----------------|
------3-----L--3--------L--|--------3-----L--3--------L--|--3----------------|
---------0-----L--0-----0--|-----------0-----L--0-----0--|--0----------------|
------------0-----L--0-----|--------------2-----L--2-----|--2----------------|
--2---------------------L--|--3-----------------------L--|--3----------------|
---------------------------|-----------------------------|-------------------|


  W                   W                  
--L----------------|--L----------------||
--L----------------|--L----------------||
--L----------------|--L----------------||
--L----------------|--L----------------||
--L----------------|--L----------------||
-------------------|-------------------||




Duration Legend
---------------
W - whole
H - half
Q - quarter
E - 8th
S - 16th
T - 32nd
X - 64th
. - note dotted
|-n-|  - n-tuplets


Tablature Legend
----------------
L - tied note
x - dead note
g - grace note
(n) - ghost note
> - accentuded note
NH - natural harmonic
AH - artificial harmonic
TH - tapped harmonic
SH - semi harmonic
PH - pitch harmonic
h - hammer on
p - pull off
b - bend
br - bendRelease
pb - preBend
pbr - preBendRelease
brb - bendReleaseBend
\n/ - tremolo bar dip
\n - tremolo bar dive
-/n - tremolo bar Release up
/n\ - tremolo bar inverted dip
/n - tremolo bar return
-\n - tremolo bar Release down
S - shift slide
s - legato slide
/ -  slide into from below or out of upwards
\ -  slide into from above or out of downwards
~ - vibrato
W - wide vibrato
tr - trill
TP - tremolo picking
T - tapping
S - slap
P - pop
< - fade in
^ - brush up
v - brush down
Comments