Revolverheld - Freunde Bleiben Chords & Tabs

 

Freunde Bleiben Chords & Tabs

Revolverheld Chords & Tabs

Version: 1 Type: Tab 0 ratings
1 star 2 stars 3 stars 4 stars 5 stars
comments

Freunde Bleiben Tab

tabbed by reload
tuning: drop D (DADGBE)
INTRO and VERSE[1]:

E|---------------------------------------|
B|------3---2---3------------------------|
G|----------------2----------------------|
D|--0-0---0---0-------------7---6--------|
A|----------------------------------6----| 6x
D|----------------------5-5---5---5------|

E|--------------------|
B|------3----------3--|
G|------4----------2--|
D|--------------------|
A|-2-2--------0-0-----|
D|--------------------|
[ Tab from: http://www.guitartabs.cc/tabs/r/revolverheld/freunde_bleiben_tab.html ]
VERSE[2]:
E|---------------------------------------|
B|------3---2---3------------------------|
G|----------------2----------------------|
D|--0-0---0---0-------------7---6--------|
A|----------------------------------6----| 4x
D|----------------------5-5---5---5------|

CHORUS:
E|---------------------------------------|
B|---------------------------------------|
G|---77777---99999-----------------------|
D|---77777---99999----55555---00000------|
A|---55555---77777----55555---00000------| 2x
D|--------------------55555---00000------|

Thatīs it... I think it sounds good
CYA
Comments