Revolution Smile - Bonethrower Chords & Tabs

 

Bonethrower Chords & Tabs

Revolution Smile Chords & Tabs

Version: 1 Type: Tab 0 ratings
1 star 2 stars 3 stars 4 stars 5 stars
comments

Bonethrower Tab

The Revolution Smile
"Bonethrower"
Above The Noise
Tabbed by: Paul

OK. I havent seen this tab ANYWHERE, so i tabbed it out myself. This is my first tab. enjoy!

(heavy distortion) 
Eb-------------------------------------------------------------------------
Bb-------------------------------------------------------------------------
Gb-------------------------------------------------------------------------
Db-------------------------------------------------------------------------        
Ab-------------------------------------------------------------------------
Db-3--0--3--5--3--0--3----3--0--3--5--3--0--3-----4x-----------------------

Verse
Eb-------------------------------------------------------------------------
Bb-------------------------------------------------------------------------   
Gb-------------------------------------------------------------------------
Db-------------------------------------------------------------------------
Ab-3---(let it ring) ------------------------------------------------------
Db-3-----------------------------------------------------------------------

Eb-------------------------------------------------------------------------
Bb-------------------------------------------------------------------------
Gb-------------------------------------------------------------------------
Db-------------------------------------------------------------------------
Ab-------------------------------------------------------------------------
Db-3--0--3--5--3--0--3----3--0--3--5--3--0--3------------------------------
[ Tab from: http://www.guitartabs.cc/tabs/r/revolution_smile/bonethrower_tab.html ]
Chorus (2x)
Eb-------------------------------------------------------------------------
Bb-------------------------------------------------------------------------
Gb-------------------------------------------------------------------------
Db-------------------------------------------------------------------------
Ab-0-------3-------5-------------------------------------------------------
Db-0-------3-------5-------------------------------------------------------

Repeat Intro

Repeat Verse

Then is goes into this....

Guitar 1
Eb-------------------------------------------------------------------------
Bb-------------------------------------------------------------------------
Gb-------------------------------------------------------------------------
Db-------------------------------------------------------------------------
Ab-3-0---3--0--3--0------------keep repeating------------------------------
Db-3-0---3--0--3--0--------------------------------------------------------

Then Guitar 2 comes in.....
Eb-------------------------------------------------------------------------
Bb-------------------------------------------------------------------------
Gb--14-11--14-11-14(bend up 1/4 step)-11----14-11-14(bend up 1/4 step)-11--
Db-------------------------------------------------------------------------
Ab-------------------------------------------------------------------------
Db-------------------------------------------------------------------------

Eb-------------------------------------------------------------------------
Bb-------------------------------------------------------------------------
Gb--14-11-14(bend up 1/4 step)-11---14-11-14(bend up 1/4 step)-------------
Db-------------------------------------------------------------------------
Ab-------------------------------------------------------------------------
Db-------------------------------------------------------------------------

The interlude is the same as the chorus but with heavy Flange.
listen to song for strumming rhythm

Repeat chorus

Repeat intro with a fall off on the last note
Comments