Revolution - Judas Priest Chords & Tabs

 

Judas Priest Chords & Tabs

Revolution Chords & Tabs

Version: 1 Type: Tab 1 rating
1 star 2 stars 3 stars 4 stars 5 stars
comments

Judas Priest Tab

   
Judas Priest - Revolution
Album: Angel Of Retribution (2005)

Tuning: Standard (E A D G B E)

Intro: Main Intro Verse
E|----------------||
B|----------------||
G|-9-9-9-9-12-9-9-||
D|-9-9-9-9-12-9-9-||
A|-7-7-7-7-10-7-7-||
E|----------------||

First Time:
E|----------------||
B|----------------||
G|-3-3-4-4-5-5----||
D|-3-3-4-4-5-5----||
A|-1-1-2-2-3-3----||
E|----------------||

Second Time:
E|----------------||
B|----------------||
G|----------------||
D|----------------||
A|----------------||
E|-3h4--5p4-44p3p0||

Chorus:
E|------------------------------------------------------------||
B|------------------------------------------------------------||
G|-9-9-9-9-12-9-9--9-9-9-9----------9-9-9-9-12-9-9---3-4-5----||
D|-9-9-9-9-12-9-9--9-9-9-9----------9-9-9-9-12-9-9---3-4-5----||
A|-7-7-7-7-10-7-7--7-7-7-7----------7-7-7-7-10-7-7---1-2-3----||
E|-------------------------0-0-0-0----------------------------||
Play Chorus 2x then play this at the end:
Verse:
E|----------------------------------------------------------------||
B|----------------------------------------------------------------||
G|-2-3---2-2-3----------------------------2-2-3-------------------||
D|-2-3---2-2-3----2-2-3-3-4-4-4-7-4-2-3---2-2-3--4-7-4-4-4-3-3-2-2||
A|-0-1---0-0-1----0-0-1-1-2-2-2-5-2-0-1---0-0-1--2-5-2-2-2-1-1-0-0||
E|----------------------------------------------------------------||

Chorus: 2x
E|------------------------------------------------------------||
B|------------------------------------------------------------||
G|-9-9-9-9-12-9-9--9-9-9-9----------9-9-9-9-12-9-9---3-4-5----||
D|-9-9-9-9-12-9-9--9-9-9-9----------9-9-9-9-12-9-9---3-4-5----||
A|-7-7-7-7-10-7-7--7-7-7-7----------7-7-7-7-10-7-7---1-2-3----||
E|-------------------------0-0-0-0----------------------------||

Verse 2nd:
E|--------------------------------------------------------------||
B|--------------------------------------------------------------||
G|-2-3---2-2-3----------------------------7^--2-3---------------||
D|-2-3---2-2-3----2-2-3-3-4-4-4-7-4-2-3---5^--2-3--4/7-4-3-3-2--||
A|-0-1---0-0-1----0-0-1-1-2-2-2-5-2-0-1-------0-1--2/5-2-1-1-0-2||
E|---------------------------------------0---------------------0||

Chorus: 2x
E|------------------------------------------------------------||
B|------------------------------------------------------------||
G|-9-9-9-9-12-9-9--9-9-9-9----------9-9-9-9-12-9-9---3-4-5----||
D|-9-9-9-9-12-9-9--9-9-9-9----------9-9-9-9-12-9-9---3-4-5----||
A|-7-7-7-7-10-7-7--7-7-7-7----------7-7-7-7-10-7-7---1-2-3----||
E|-------------------------0-0-0-0----------------------------||

Lead Guitar Pt. I:
E|-------------6^^^^-----------6^^^^--||
B|-(Hold)11^^^^----(Hold)11^^^^-------||
G|------------------------------------||
D|------------------------------------||
A|------------------------------------||
E|------------------------------------||

2nd Guitar (Play along with Lead Guitar): 2x
E|---------------------------------------------||
B|---------------------------------------------||
G|-4-4-4-4/5--4-4-4-4/6-4--4/5-4/5-6-6-6\4-----||
D|-4-4-4-4/5--4-4-4-4/6-4--4/5-4/5-6-6-6\4-----||
A|-2-2-2-2/3--2-2-2-2/4-2--2/3-2/3-4-4-4\2-----||
E|---------------------------------------------||
[ Tab from: http://www.guitartabs.cc/tabs/r/revolution/judas_priest_tab.html ]
Bridge: 2x
E|-----------------------------------------------||
B|-4--4-3-4------4---4-3--3-4-5------------------||
G|-4--4-3-4------4---4-3--3-4-5------------------||
D|-2--2-1-2------2---2-1--1-2-3------------------||
A|-----------------------------------------------||
E|----------0000---0-----------------------------||

Bridge Outro I: 3x
E|----------------||
B|----------------||
G|-3-3-4-4-5-5----||
D|-3-3-4-4-5-5----||
A|-1-1-2-2-3-3----||
E|----------------||

Bridge Outro II: 3x
E|------------|---||
B|------------|---||
G|-3-3-4-4-5-5|5-5||
D|-3-3-4-4-5-5|5-5||
A|-1-1-2-2-3-3|3-3||
E|------------|---||

Lead Guitar Pt. II:                                (Alt. End)
E|----------------6^----------------------------|-----------------||
B|--11^-(Hold)------------------------4-5-5-6\3-|-----------------||
G|------------------------------------4-5-5-6\3-|-----------------||
D|------------------------------------2-3-3-4\1-|-----------------||
A|----------------------------------------------|-----------------||
E|----------------------------------------------|-----------------||
Second Time Only (Alt. End)
E|--------------------------||
B|--------------------------||
G|-14 16p14-16p14-16p15p14^-||
D|--------------------------||
A|--------------------------||
E|--------------------------||
Third Time Only (Alt. End)
E|----------------||
B|-------------17^||
G|-12--14^-14^----||
D|----------------||
A|----------------||
E|----------------||

2nd Guitar: (Play along with Lead Guitar)
E|----------------------------------------------------------------||
B|----------------------------------------------------------------||
G|-9-9-9-9-12-9-9--9-9-9-9------------9-9-9-9-12-9-9---4/5-4/5-6/4||
D|-9-9-9-9-12-9-9--9-9-9-9------------9-9-9-9-12-9-9---4/5-4/5-6/4||
A|-7-7-7-7-10-7-7--7-7-7-7------------7-7-7-7-10-7-7---2/3-2/3-4/2||
E|------------------------PickSlideUp-----------------------------||

Lead Outro:
E|------------------------------------------------------------------||
B|------------------------------------------------------------------||
G|-9-9-9-9-12-9-9--------------------9-9-9-9-12-9-9-----------------||
D|-9-9-9-9-12-9-9--9-9-10-11-12-13---9-9-9-9-12-9-9--9-9-13-12-11-10||
A|-7-7-7-7-10-7-7--7-7--8--9-10-11---7-7-7-7-10-7-7--7-7-11-10--9--8||
E|------------------------------------------------------------------||

Quiet Chorus: 6x
E|--------------------------|---------------||
B|--------------------------|---------------||
G|--------------------------|---------------||
D|--------------------------|---------------||
A|-x-x-x-x--x-x-x-x--x-x-x-x|-1xx-2xx-3x----||
E|-x-x-x-x--x-x-x-x--x-x-x-x|-xxx-xxx-xx----||

Chorus: Fades till the end
E|------------------------------------------------------------||
B|------------------------------------------------------------||
G|-9-9-9-9-12-9-9--9-9-9-9----------9-9-9-9-12-9-9---3-4-5----||
D|-9-9-9-9-12-9-9--9-9-9-9----------9-9-9-9-12-9-9---3-4-5----||
A|-7-7-7-7-10-7-7--7-7-7-7----------7-7-7-7-10-7-7---1-2-3----||
E|-------------------------0-0-0-0----------------------------||

Every couples of plays replace 0-0-0-0 with the Pick Slide up the 
neck on the low E string.

Intro 1rst Time
Intro 2nd Time
Chorus 2x
Verse 2x
Chorus 2x
2nd Verse 2x
Chorus 2x
Lead Pt. I w Lead Rhythym Gt.
Bridge w Outro I 1x
Bridge w Outro II 1x
Lead Pt. II w Rhythym Gt. w Alt. Ends (Total Of 4x)
Lead Outro 1x
Quiet Acoustic Chorus 6x
Chorus (Fades to End, not shure but alot of times!) 



FRANCV


Comments