Reverend Horton Heat - Someone In Heaven Chords & Tabs

 

Someone In Heaven Chords & Tabs

Reverend Horton Heat Chords & Tabs

Version: 1 Type: Tab 0 ratings
1 star 2 stars 3 stars 4 stars 5 stars
comments

Someone In Heaven Tab

   
REVEREND HORTON HEAT
\"Someone In Heaven\"
Revival
by: primusfan 

This is a great song for the Rev\'s mother. Good for when you wanna tug at people\'s
heart strings. Tabbed by the ear-izzay so excuse mistakes.:p

========================
* = Harmonic
s = slide
b = bend
r = release
=======================


[INTRO]
E--------------0--3-----|   [x2]
B--------------1--3-----|
G--------------0--0-----|
D---------0----2--0-----|
A-0-0h1h2------3--2-----|
E-----------3-----3-----|


[VERSE/CHORUS]
       G                    C            Am
theres someone in heaven to talk with today
D                           G              D
someone that knows just the right thing to say
    G                      C               Am
you lived a full life, you fought the good fight
       D                    G         D
theres someone in heaven to talk with tonight

[ Tab from: http://www.guitartabs.cc/tabs/r/reverend_horton_heat/someone_in_heaven_tab.html ]
[SOLO]
E-----------------|--------------------------------------|---------------|--------------|
B-0---0-0---------|--------------------------------------|---------------|----5---------|
G---0-----2-0-----|-0h2--0h2-0-----------4-----------0-2-|----4---5---4--|------------2-|
D-------------2-2-|------------4p2p0-------5--0h2-0--2-0-|------0---0----|-s5---5s--2---|
A-----------------|--------------------0-----------------|-s5------------|--------------|
E-----------------|------------------2-------------------|---------------|--------------|

E--10----------10--------------|-10--------------10----10------|
B--10-------10----10-----------|----10--12*------12s13-12------|
G--11b12r11----------11b12r11--|------------12*----------------|
D------------------------------|-------------------------------|
A------------------------------|---------------------------0-2-|
E------------------------------|-------------------------------|

[BRIDGE]

    C            (G)       G
you used to hold hands and ride round the park

C           (C#)              G
stop by the school yard where maybe you\'d spark
G                       C         Am
so take up the lyre and sing us a song
D                          G          D
we\'ll be there someday and we\'ll sing along

--- Notes in parentheses are some alternating bass notes ---
Comments