Reverend And The Makers - Bandits Chords & Tabs

 

Bandits Chords & Tabs

Reverend And The Makers Chords & Tabs

Version: 1 Type: Tab

Bandits Tab

MAIN Riff

G|-------------------|
D|-------------------|
A|---555-353---------|
E|-----------555-353-|

Wifes Part
[ Tab from: http://www.guitartabs.cc/tabs/r/reverend_and_the_makers/bandits_tab.html ]
G|----7---------5--------------------------|
D|------------------------5-----------5----|
A|-5----5----3----3------------------------|
E|---------------------3-----3----3-----3--|

MAIN Riff

G|-------------------|
D|-------------------|
A|---555-353---------|
E|-----------555-353-|



http://www.iamreverend.com/


Check them out if you havent already


Dom