Reverb - Nothing Left Chords & Tabs

 

Nothing Left Chords & Tabs

Reverb Chords & Tabs

Version: 1 Type: Tab 0 ratings
1 star 2 stars 3 stars 4 stars 5 stars
comments

Nothing Left Tab

reverb - nothing left
Tabbed By: david
EMail: angusyoung_55@hotmail.com


by:david hatton                        "nothing left"

intro
-----4----------0-----------2-----------5------
-------4----------0----------2-----------5-----
---6-----6----2-----2----------2---------------
--6-------6--2-------2---4-------4---7-----7---
-4----------0-----------4-----------7--------7-
-----------------------2-----------5-----------
verse
------0---------------3--------0-------0-
----0--0-------------3-3------0-0-----0--
---2-----2----------0---0----5---5---0---
--2-------2--------0-----0--5-------7----
-0---------------2---------3-------5-----
------------0-2-3------------------------

intro to chours

-------------------------
-------------------------
---7----5----2-----------
--7-7--5-5--2-2-------2--
-5----3----0---------2-2-
----------------3-2-0----

chours
-0---0------------------
-0---0------------------
-8x5-2x5----------------
-8---2---xx-4-------7---
-6---0---xx-4x5-----7x5-
------------2---2-4-5---
[ Tab from: http://www.guitartabs.cc/tabs/r/reverb/nothing_left_tab.html ]
solo
//full//
---------------------------------------------------------------------------------------------------
-/19b-19bvv--17-19-17b---17bvv-17/15vv-15-17-19-17-15-----15bvv-15-13-13hp15hp13-------------------
----------------------19b-----------------------------17b------------------------15-15bvv-13----13-
---------------------------------------------------------------------------------------------15b---
---------------------------------------------------------------------------------------------------
---------------------------------------------------------------------------------------------------

                            // full//
----------------------------------------------------------------------------------15-hp-19-hp-15-x4-
--------------------------15-17/19b-19vv-17-hp-19-hp-17----21-17-x4-15---17-19-x4-------------------
-15b-13-----13bvv-13-14/16------------------------------19-------x4----17------x4-------------------
-------15-13----------------------------------------------------------------------------------------
----------------------------------------------------------------------------------------------------
----------------------------------------------------------------------------------------------------


-19-hp-21-hp-19-x4-13-hp-15-hp-13-x3----------------------------------------------------------------
-------------------------------------5-hp-7-hp-12-x4-5-hp-7-hp-10-x3-5-hp-7-hp-9-x4-9/21------------
-----------------------------------------------------------------------------------------15---19-x4-
--------------------------------------------------------------------------------------------17---x4-
----------------------------------------------------------------------------------------------------
----------------------------------------------------------------------------------------------------

                                  palm mute
-----------------------------------------  the end
-----------------------------------------  the end
-17---21-x4---17---x4---19----x4-19vv-0--  the end
---19----x4-15--19-x4-17---21-x4-17vv-0--  the end
-----------------------------------------  the end
-----------------------------------------  the end
Comments