Reverb - Kiss Of Death Chords & Tabs

 

Kiss Of Death Chords & Tabs

Reverb Chords & Tabs

Version: 1 Type: Tab 0 ratings
1 star 2 stars 3 stars 4 stars 5 stars
comments

Kiss Of Death Tab

reverb - kiss of death
Tabbed By: david
EMail: angusyoung_55@hotmail.com
written by: david hatton & andrew puckett:  


intro

-------0-----------0--------0------------------------------------------------------
--------0-----------0--------0-----0---0-------------------3-3---------------------
---2--4--4-----0-----0------------------0-----0---0-------0---0-------0-------1----
--2--4------------3------4--------4---2-----0----2-0-----0-----0-----3-3-----0-----
-0--2--------2---3------2--------2---0-----0----2-------2-------2---3---3---2------
------------3---1------0--------3---3-----1----0-------3---------3-1-----1-0-------

----------------------------------0---------------------------------------------0--0----------
-----------------------------------0-----3-1-0---------------3-4/6-0-----------3--3-0---------
----0-------------------------------0---1-----2/3-0---------0-------2-3b-0----2--0--------0-0-
---0---0--0--0--0---0------------------2-------2/3-0-------0-----------------0--2--------0--0-
--2---2--3--5--5-5-3-3--0---0--4-3----2-------------------2-----------------2--3--------2-----
-1---3--5--3-----------5-5-3-3-2-1----0--------------3-2-0-----------------------------3------


-------------------------------------------------------------------------0-0------
------------------------------------------------------------------------0---0-----
----0--0----0-0----0-0----0-----0---0-----1----0----0---0------1------0------0----
---0---0---0--0---0--0---4-4---5---0-5---2-2--4-4--5---0-5----2-2----0--------0---
--0-------2------1------2-----3---2-----2----2----3---2------2------0-------------
-1-------0------0------0-----0---3-----0----0----0---3------0------0--------------


-------------------------0----
--------------------------3---
-------0----0----1---------0--
---4--5----0-5--2-2----2----0-
--2--3----2----2----2/3-------
-0--0----3---0----------------
riff1

----------0-------------------------------------------------------0-0-----------0-----------
---------0--------------------3-3--------------------------------0---0------------7---------)
-----------------0----0------0--0-------------------------------0-----0--------0--7harmonics)
---4----4---2---0----2-0----0----0-------2-0-2-0-----------------------0------0---7---------)
--2----2---0---0----2------2------2-----0-------1/2/1-------3/3-----------5/5---------------
-0----3---3---1----0------3--------3-0-1-------------2/3/2--2/1-----------4/3---------------

-3------3-3-2----2-2---2------------3----------------------------------0---0-------------
-3-----3--3-3---3---3--3--1----1--1-3------0--------------------------3-3/1--------------
-0----0---0-2--2-----2----0---0---0-0-----0---0---0---------0--------0-------------------
-0---0------0-0-----------2--2----2-0--------0---3---5-----0---0---0---------2-3-0-------
-2--2---------------------3-3-----3-2---0-------1-----2---2---3---3----------------2-3-0-
-3-3--------------------------------3------------------0-3---1---2-----------------------

chors

-------------------------------0-------------------------------0-----
--------------------------------0--0--1-x-x-1-x-1-x-x-1-3-3-x---0--0-
---------------------------------0----2-x-x-2-x-2-x-x-2-4-4-x----0---
-3-x-x-3-x-3-x-x-3rr-5-5-x------------3-x-x-3-x-3-x-x-3-5-5-x--------
-3-x-x-3-x-3-x-x-3rr-5-5-x------------3-x-x-3-x-3-x-x-3-5-5-x--------
-1-x-x-1-x-1-x-x-1rr-3-3-x-------------------------------------------
mini solo

-----------------------------------------------------------------------------
-----------------------------------------------------------------------------
-3-3-3-3-3-3/5-5-5-5-5-------3-5-5b-3---5-7-7b-5-2vv---2-4-5-4-5-4-2---2-1r--
-3-3-3-3-3-3/5-5-5-5-5--3-3-5--------5/7----------------------------3vv--2r--
-1-1-1-1-1-1/3-3-3-3-3-------------------------------------------------------
-----------------------------------------------------------------------------
riff 2
[ Tab from: http://www.guitartabs.cc/tabs/r/reverb/kiss_of_death_tab.html ]
----0--------------------------------0-----0---------0-------0---------0---------0-----
---0---------------------------------2----2--2------0-0-----1-1-------1-1-------3-3----
--1-----0----0---0--0----0--3-1------2---2----2----2---2---2---2-----2---2-----2---2---
-2-----0----3---0--0----0------3/5-2-2--2------2--2-----2-2-----2---3-----3---0-----0--
------2----3---5--0----0-------------0-0---------0-------0---------0---------0---------
-----3----1---3--2----1----------------------------------------------------------------


-----0--------0------3-3-------2-2---3-2-----------------------------0-0-0-0-0-----------
----3-3------0------3---3-----3---3---------1-1--------------3--2--1-1-1-1-1-1-1-1-1-1-1-
---4---4----0------0-----0---2-----2-------0---0-----------1---0--0--2-2-2-2-2-0-0-0-0-0-
--5-----5--0------0---------0-------------2-----2--------0-----------2-2-2-2-2-2-2-2-2-2-
-0---------------2-----------------------3------------0-2----------------------3-3-3-3-3-
----------------3-------------------------------------------------------------------------0-0-3-0-0-0-0-0-3-0-0-0-0--------------------------
-3-3-3-3-3-3-3-3-3-3-3-3--3-------------------------
-2-2-2-2-2-2-2-2-2-2-2-2---2------------------------
----------------------------0---------3/5-0---------
-----------------------------3------0-1/3-0-3/5-0---
-------------------------------3-2-0--------1/3-0---
chors

---------------------------0-------------------------------0-----
----------------------------0-0-1-x-x-1-x-1-x-x-1-3-3-x-----0-0--
-----------------------------0--2-x-x-2-x-2-x-x-2-4-4-x------0---
-3-x-x-3-x-3-x-x-3rr-5-5-x------3-x-x-3-x-3-x-x-3-5-5-x----------
-3-x-x-3-x-3-x-x-3rr-5-5-x------3-x-x-3-x-3-x-x-3-5-5-x----------
-1-x-x-1-x-1-x-x-1rr-3-3-x---------------------------------------

riff 3

---------------------0----------------------------------------------------------------
-------5/7-7-1-1-1-3--0---------------------------------------------------------------
-3/5-5-5/7-7-3-3-3-5---0-----0---0---0------------------------------------------------
-3/5-5-3/5-5-3-3-3-5----0---0---0---0-------2-3-0-4-4-4-4-4-4-6-6-6-6-6-6-8-8-8-8-8-8-
-1/3-3---------------------0---0---0---2-3-0------2-2-2-2-2-2-4-4-4-4-4-4-6-6-6-6-6-6-
--------------------------3---2---1---------------------------------------------------


-----------------------------0-------------
------------------------------0--0---------
----------------------------------0-----0--
-3-3-3-3-3-3---------------2---1------0--0-
-1-1-1-1-1-1-3-3-3-3-3-3--2---1------0-----
-------------1-1-1-1-1-1-0---0------1------

pre chors

-----------------------------------------------------
-----------------------------1-x-x-1-x-1-x-x-1-3-3-x-
-----------------------------2-x-x-2-x-2-x-x-2-4-4-x-
-3-x-x-3-x-3-x-x-3rr-5-5-x---3-x-x-3-x-3-x-x-3-5-5-x-
-3-x-x-3-x-3-x-x-3rr-5-5-x---3-x-x-3-x-3-x-x-3-5-5-x-
-1-x-x-1-x-1-x-x-1rr-3-3-x---------------------------


-------------------------
-------------------------
-3-3-3-3-3-3/5-5-5-5-5-5-
-3-3-3-3-3-3/5-5-5-5-5-5-
-1-1-1-1-1-1/3-3-3-3-3-3-
-------------------------

solo

-------------------------------------------------------------------------------------------------
-------------------------------------------------------------------------------------------------
-------16-14-12-12hp-14hp-12----14/12-11hp-12hp-11--13-14hp-15-14-17-15---------15hp-17-19-17-15-
/12-12-----------------------14-------------------12--------------------19-17-15-----------------
-------------------------------------------------------------------------------------------------
-------------------------------------------------------------------------------------------------------------------------------------------------------0--------3---
----------------------------------------------------0---0------3---
-17b-15---------15-14-12bvv-15/17-15----------------------0----0---
-------17--15-12--------------------17/19-17-15---0------------0---
---------------------------------------------------------------2---
---------------------------------------------------------------3---

outro

-----0--0--0----
----3--3--3--0--
---0--0--4--0---
--0--2--2--5----
-1--1--1--3-----
---------0------
Comments