Reveille - Permanent Chords & Tabs

 

Permanent Chords & Tabs

Reveille Chords & Tabs

Version: 1 Type: Tab 0 ratings
1 star 2 stars 3 stars 4 stars 5 stars
comments

Permanent Tab

   
Song:  Permanent
Band:  Reveille	       Tuning: Dropped D 
Album: Laced
Tabbed by: Joe Rust
Found at: http://www.aad1.com/reveille

----------------------
----------------------
----------------------
xx-x-6-xx-x-6-x-------
xx-x-6-xx-x-6-x-------
xx-x-6-xx x-6-x-------
repeat a few times

----------------------
----------------------
----------------------
00-0-6-00-0-4h6-------
00-0-6-00-0-4h6-------
00-0-6-00-0-4h6-------
^
intro and chorus riff

------------------------------------
-----------------------------7-h-9--
------------------------------------
------------------------------------
------------------------------------
0-0-0-7-7-7-6-6-6-5-5-5-7-7---------
here's a shot at the verse riff

--------------------------
--------------------------
--------------------------
--------------------------
--------------------------
0---0-0-0-7-7 5-5-6p5-----
^
thing he does before they go
crazy.


=================================================================


Song:  Permanent
Band:  Reveille	       Tuning: Dropped D 
Album: Laced
Tabbed by: Southernbunk
Found at: http://www.aad1.com/reveille


intro to Permanent-gREG ALSO Taught me this!!

E
B
G
D-----------------------13--------------12......PULL STRING UP
A-----------------------12--------------13......PULL STRING UP
D-----0-0-0-0----------------0-0-0-
REPEAT 4 TIMES

the correct verse tab for PERMANENT!

E
B
G
D
A----------------------------------------3-5--
D---0000--6666---555---777----
====================================================================

[ Tab from: http://www.guitartabs.cc/tabs/r/reveille/permanent_tab.html ]
 Song:  Permanent
 Band:  Reveille        Tuning: Dropped D down 1/2 step
 Album: Laced
 Tabbed by: Chris wilson (phoenix)
 \=slide
 h=hammer on

 1st part of intro
 -------------------
 -------------------
 -----6------6------
 00-0---00-0--------}repeat 4 times
 00-0-4-00-0-4\5----
 00-0---00-0--------


 -------------------------
 -------------------------
 -------------------------
 00-0-6-00-0-6-04\6-------
 00-0-6-00-0-6-04\6-------
 00-0-6-00-0-6-04\6-------

 chorus and 2nd part of intro

 ------------------------------------            
 ------------------------------------
 -------------5h7--------------------}intro verse
 0000777755557-----------------------
 ------------------------------------
 ------------------------------------
 the verse is something like this                            
 rythm guitar plays first  

 --------------------------
 --------------------------
 --------------------------}verse
 --------------------------
 -------------3h5----------
 0000777755557-------------
 Lead guitar joins in   then they play together

 then the 2 outro riffs are similar notes but different rythms

 -------------------------------------
 -------------------------------------
 -6666-66-606\7-----------------------}play that a few times  then
 066660660606\7-----------------------
 044440440404\5-----------------------
 0----0--0-0-------------------------- ----------------------------------------
 ----------------------------------------
 ----------------------------------------
 0--006--667-----------------------------
 0--006--665-----------------------------
 0--004--445-----------------------------
Comments