Reuben Larlee - I Remember Chords & Tabs

 

I Remember Chords & Tabs

Reuben Larlee Chords & Tabs

Version: 2 Type: Tab 0 ratings
1 star 2 stars 3 stars 4 stars 5 stars
comments

I Remember Tab

   
GUITAR 1
Intro

e-------------------0-------------3-5-0-------0-1-0---
B-------3-1-0-----1---1---------0-----------0-------1-
G-2---2---------2-------0-----0-----------0-----------
D---2---------2-----------2-0-----------2-------------
A-0---------3-----------------------------------------
E---------------------------3---------0---------------

Chorus

e---------0---------------0---------------3---------------0-------
B-------1---1-----------1---1-----------0---0-----------0---0-----
G---2-----------2---0-----------0---0-----------0---0-----------0-
D-----2---------------2---------------0---------------2-----------
A-0-----0-----0---3-----3-----3-----------------------------------
E---------------------------------3-----3-----3---0-----0-----0---

Verse
[ Tab from: http://www.guitartabs.cc/tabs/r/reuben_larlee/i_remember_tab_ver_2.html ]
e---------0---------------0---------------0---------------0-------
B-------3---3-----------3---3-----------3---3-----------3---3-----
G---2-----------2---2-----------2---2-----------2---2-----------2-
D-----2---------------2---------------2---------------2-----------
A-0-----------0---------------------------------------------------
E-----------------3---------------1---------------1---------------



GUITAR 2
Verse

  A      A        F      E
E-0-   E-0-	E-1-	E-0-
B-1-   B-1-	B-1-	B-0-
G-2-   G-2-	G-2-	G-1-
D-2-   D-2-	D-3-	D-2-
A-0-   A-0-	A-3-	A-2-
E-0-   E-0-	E-1-	E-0-

Chorus

  A        C      G       E
E-0- 	 E-0- 	E-3-	 E-0-
B-1- 	 B-1- 	B-0-	 B-0-
G-2-	 G-0- 	G-0-	 G-0-
D-2-	 D-2- 	D-0-	 D-2-
A-0-	 A-3- 	A-2-	 A-2-
E-0-	 E-0- 	E-3-	 E-0-





Playing order
G1(intro)-(chorus x2)-(verse x6)-(chorus x4)-(Verse x4)-(Chorus x4)-(verse x4)-(chorus x8)
G2(pause)-(Chorus x2)-(Verse x6)-(Chorus x4)-(verse x4)-(Chorus x4)-(verse x4)-(Chorus x8)

G1(  pause  )-end
G2(Chorus x5)-end
Comments