Reuben - Lights Out Chords & Tabs

 

Lights Out Chords & Tabs

Reuben Chords & Tabs

Version: 1 Type: Tab 0 ratings
1 star 2 stars 3 stars 4 stars 5 stars
comments

Lights Out Tab

   
-------------------------------------------------------------------------------
			     Lights Out - Reuben
-------------------------------------------------------------------------------
Tabbed by: Liam Saxton, Sarah Halliday.


Tuning: Drop d half a step down. normal reuben tuning.

D#|--------------------------------------------------------------------------|
A#|---5-5--7--8-----5-5--7--8-----5-5--7--8-----5-5--5-5---------------------|
F#|--------------------------------------------------------------------------| X6
C#|---7-7--7--7-----7-7--7--7-----7-7--7--7-----7-7--7-7---------------------|
G#|---0-0--0--0-----0-0--0--0-----0-0--0--0-----5-5--5-5---------------------|
C#|---------------------------------------------0-0--0-0---------------------|
	then the variation of the verse riff 
D#|--------------------------------------------------------------------------|
A#|---5-5-7-5-5-----5-5-7-5-5----5-5-7-5-5------5-5--5-5---------------------|
F#|--------------------------------------------------------------------------|
C#|---7-7-7-7-7-----7-7-7-7-7----7-7-7-7-7------7-7--7-7---------------------|
G#|---0-0-0-0-0-----0-0-0-0-0----0-0-0-0-0------5-5--5-5---------------------|
C#|---------------------------------------------0-0--0-0---------------------|
	then back to the normal verse riff
D#|--------------------------------------------------------------------------|
A#|---5-5--7--8-----5-5--7--8-----5-5--7--8-----5-5--5-5---------------------|
F#|--------------------------------------------------------------------------| 
C#|---7-7--7--7-----7-7--7--7-----7-7--7--7-----7-7--7-7---------------------|
G#|---0-0--0--0-----0-0--0--0-----0-0--0--0-----5-5--5-5---------------------|
C#|---------------------------------------------0-0--0-0---------------------|

   
D#|---0-------------0-----------|
A#|---0-------------0-----------|
F#|---0-------------0-----------|
C#|---10------------5-----------|
G#|---10------------5-----------|
C#|---10------------5-----------|

D#|-----------------------------|
A#|---5-5--7--8-----5-5--7--8---|
F#|-----------------------------| 
C#|---7-7--7--7-----7-7--7--7---|
G#|---0-0--0--0-----0-0--0--0---|
C#|-----------------------------|
    
D#|---0-------------0-------------------------------------------------------|
A#|---0-------------0-------------------------------------------------------|
F#|---0-------------0-------------------------------------------------------|
C#|---10------------5--------------2-----2-2-2-2-2-2-2-2-2-2-2-2-2-2-2------|
G#|---10------------5--------------2-----2-2-2-2-2-2-2-2-2-2-2-2-2-2-2------|
C#|---10------------5--------------2-----2-2-2-2-2-2-2-2-2-2-2-2-2-2-2------|
    Chorus			      
D#|-------------------------------------------------------------------------|
A#|-------------------------------------------------------------------------|
F#|-------------------------------------------7-7-7-7-7-7-7-7---------------|
C#|---10-10-10-10-10-10-10-10-5-5-5-5-5-5-5-5-7-7-7-7-7-7-7-7-7-7-7-7-7--9--|
G#|---10-10-10-10-10-10-10-10-5-5-5-5-5-5-5-5-5-5-5-5-5-5-5-5-7-7-7-7-7--9--|
C#|---10-10-10-10-10-10-10-10-5-5-5-5-5-5-5-5-----------------7-7-7-7-7--9--|

D#|-------------------------------------------------------------------------|
A#|-------------------------------------------------------------------------|
F#|-------------------------------------------7-7-7-7-7-7-7-7---------------|
C#|---10-10-10-10-10-10-10-10-5-5-5-5-5-5-5-5-7-7-7-7-7-7-7-7-7-7-7-7-7--5--|
G#|---10-10-10-10-10-10-10-10-5-5-5-5-5-5-5-5-5-5-5-5-5-5-5-5-7-7-7-7-7--5--|
C#|---10-10-10-10-10-10-10-10-5-5-5-5-5-5-5-5-----------------7-7-7-7-7--5--|

D#|-------------------------------------------------------------------------|
A#|-------------------------------------------------------------------------|
F#|-------------------------------------------7-7-7-7-7-7-7-7---------------|
C#|---10-10-10-10-10-10-10-10-5-5-5-5-5-5-5-5-7-7-7-7-7-7-7-7-7-7-7-7-7--9--|
G#|---10-10-10-10-10-10-10-10-5-5-5-5-5-5-5-5-5-5-5-5-5-5-5-5-7-7-7-7-7--9--|
C#|---10-10-10-10-10-10-10-10-5-5-5-5-5-5-5-5-----------------7-7-7-7-7--9--|

D#|---0---0-0-0-0-0-0-0-0-0-0-0-0-0-0----------|
A#|---0---0-0-0-0-0-0-0-0-0-0-0-0-0-0----------|
F#|---0---0-0-0-0-0-0-0-0-0-0-0-0-0-0----------|
C#|---3---3-3-3-3-3-3-3-3-3-3-3-3-3-3----------|
G#|---3---3-3-3-3-3-3-3-3-3-3-3-3-3-3----------|
C#|---3---3-3-3-3-3-3-3-3-3-3-3-3-3-3----------|

D#|----------------------------------------------------|
A#|----------------------------------------------------|
F#|----------------------------------------------------|
C#|---0--0---3--3---5-h-7-----0--0---3--3---5-h-7------|
G#|---0--0---3--3---5-h-7-----0--0---3--3---5-h-7------|
C#|---0--0---3--3---5-h-7-----0--0---3--3---5-h-7------|

D#|--------------------------------------------------------------------------|
A#|---5-5--7--8-----5-5--7--8-----5-5--7--8-----5-5--5-5---------------------|
F#|--------------------------------------------------------------------------| X2
C#|---7-7--7--7-----7-7--7--7-----7-7--7--7-----7-7--7-7---------------------|
G#|---0-0--0--0-----0-0--0--0-----0-0--0--0-----5-5--5-5---------------------|
C#|---------------------------------------------0-0--0-0---------------------|

D#|-----------------------------------0------------------0-------------------|
A#|-----------------------------------0------------------0-------------------|
F#|-----------------------------------0------------------0-------------------|
C#|--------------------------------------------------------------------------|
G#|--------------------------------------------------------------------------|
C#|--2--2/----14--12----2--2/----14--12----2--2/----14--12-----8-8-7-5-7-5-7-|

D#|--------------------------------------------------------------------------|
A#|---5-5--7--8-----5-5--7--8-----5-5--7--8-----5-5--5-5---------------------|
F#|--------------------------------------------------------------------------| X2
C#|---7-7--7--7-----7-7--7--7-----7-7--7--7-----7-7--7-7---------------------|
G#|---0-0--0--0-----0-0--0--0-----0-0--0--0-----5-5--5-5---------------------|
C#|---------------------------------------------0-0--0-0---------------------|
[ Tab from: http://www.guitartabs.cc/tabs/r/reuben/lights_out_tab.html ]
D#|--------------------------------------------------------------------------|
A#|---------8--------7--------8--------7--------8--------7----7-7-7-7-7-7----|
F#|------5--------5--------5--------5--------5--------5----------------------| X2
C#|---7--------7--------7--------7--------7--------7----------7-7-7-7-7-7----|
G#|-----------------------------------------------------------5-5-5-5-5-5----|
C#|--------------------------------------------------------------------------|

D#|---0-------------0-----------|
A#|---0-------------0-----------|
F#|---0-------------0-----------|
C#|---10------------5-----------|
G#|---10------------5-----------|
C#|---10------------5-----------|

D#|-----------------------------|
A#|---5-5--7--8-----5-5--7--8---|
F#|-----------------------------| 
C#|---7-7--7--7-----7-7--7--7---|
G#|---0-0--0--0-----0-0--0--0---|
C#|-----------------------------|

D#|---0-------------0-------------------------------------------------------|
A#|---0-------------0-------------------------------------------------------|
F#|---0-------------0-------------------------------------------------------|
C#|---10------------5--------------2-----2-2-2-2-2-2-2-2-2-2-2-2-2-2-2------|
G#|---10------------5--------------2-----2-2-2-2-2-2-2-2-2-2-2-2-2-2-2------|
C#|---10------------5--------------2-----2-2-2-2-2-2-2-2-2-2-2-2-2-2-2------|
    Half Time chorus		      
D#|-------------------------------------------------------------------------|
A#|-------------------------------------------------------------------------|
F#|-------------------------------------------7-7-7-7-7-7-7-7---------------|
C#|---10-10-10-10-10-10-10-10-5-5-5-5-5-5-5-5-7-7-7-7-7-7-7-7-7-7-7-7-7--9--|
G#|---10-10-10-10-10-10-10-10-5-5-5-5-5-5-5-5-5-5-5-5-5-5-5-5-7-7-7-7-7--9--|
C#|---10-10-10-10-10-10-10-10-5-5-5-5-5-5-5-5-----------------7-7-7-7-7--9--|

D#|-------------------------------------------------------------------------|
A#|-------------------------------------------------------------------------|
F#|-------------------------------------------7-7-7-7-7-7-7-7---------------|
C#|---10-10-10-10-10-10-10-10-5-5-5-5-5-5-5-5-7-7-7-7-7-7-7-7-7-7-7-7-7--5--|
G#|---10-10-10-10-10-10-10-10-5-5-5-5-5-5-5-5-5-5-5-5-5-5-5-5-7-7-7-7-7--5--|
C#|---10-10-10-10-10-10-10-10-5-5-5-5-5-5-5-5-----------------7-7-7-7-7--5--|

D#|-------------------------------------------------------------------------|
A#|-------------------------------------------------------------------------|
F#|-------------------------------------------7-7-7-7-7-7-7-7---------------|
C#|---10-10-10-10-10-10-10-10-5-5-5-5-5-5-5-5-7-7-7-7-7-7-7-7-7-7-7-7-7-7-9-|
G#|---10-10-10-10-10-10-10-10-5-5-5-5-5-5-5-5-5-5-5-5-5-5-5-5-7-7-7-7-7-7-9-|
C#|---10-10-10-10-10-10-10-10-5-5-5-5-5-5-5-5-----------------7-7-7-7-7-7-9-|
							      PM* * * *
D#|----------0----------------------0------|
A#|----------0----------------------0------|
F#|----------0----------------------0------|
C#|---3-----------------3------------------|
G#|---3-----------------3------------------|
C#|---3-----------------3------------------|

D#|-----------------------------------------------------------------------------------|
A#|-----------------------------------------------------------------------------------|
F#|-----------------------------------------------------------------------------------| x3
C#|---0--0---3--3---5-h-7-----0--0---3--3---5-h-7---0--0---3--3---5-h-7---------------|
G#|---0--0---3--3---5-h-7-----0--0---3--3---5-h-7---0--0---3--3---5-h-7---------------|
C#|---0--0---3--3---5-h-7-----0--0---3--3---5-h-7---0--0---3--3---5-h-7--10-5-7-3-5-3-|

D#|---0-----------------------0---------------------0---------------------------------|
A#|---0-----------------------0---------------------0---------------------------------|
F#|---0-----------------------0---------------------0---------------------------------| 
C#|---0--0---3--3---5-h-7-----0--0---3--3---5-h-7---0--0---3--3---5-h-7---------------|
G#|---0--0---3--3---5-h-7-----0--0---3--3---5-h-7---0--0---3--3---5-h-7---------------|
C#|---0--0---3--3---5-h-7-----0--0---3--3---5-h-7---0--0---3--3---5-h-7--10-5-7-3-5-3-|

D#|-----------------------------------------------------------------------------------|
A#|-----------------------------------------------------------------------------------|
F#|-----------------------------------------------------------------------------------| X2
C#|---7-7-7-7-7-7-7-7-7-7-7-7-7-7-7-7--0-0-0-0-0-0-0-0--3-3-3-3-3-3-3-3---------------|
G#|---7-7-7-7-7-7-7-7-7-7-7-7-7-7-7-7--0-0-0-0-0-0-0-0--3-3-3-3-3-3-3-3---------------|
C#|---7-7-7-7-7-7-7-7-7-7-7-7-7-7-7-7--0-0-0-0-0-0-0-0--3-3-3-3-3-3-3-3---------------|

D#|-----------------------------------------------------------------------------------|
A#|-----------------------------------------------------------------------------------|
F#|-----------------------------------------------------------------------------------| X2
C#|---7-7-7-7-7-7-7-7-7-7-7-7-7-7-7-7--0-0-0-0-0-0-0-0--3-3-3-3-3-3-3-3---------------|
G#|---7-7-7-7-7-7-7-7-5-5-5-5-5-5-5-5--0-0-0-0-0-0-0-0--3-3-3-3-3-3-3-3---------------|
C#|---7-7-7-7-7-7-7-7-5-5-5-5-5-5-5-5--0-0-0-0-0-0-0-0--3-3-3-3-3-3-3-3---------------|

D#|-----------|
A#|-----------|
F#|-----------| X8
C#|---10--0-0-|
G#|---10--0-0-|
C#|---10--0-0-|

D#|------------------|
A#|------------------|
F#|------------10-10-| X11
C#|---10--0-0--9-9---|
G#|---10--0-0--------|
C#|---10--0-0--------|

D#|-------|
A#|-------|
F#|-------|
C#|---0-0-|
G#|---0-0-|
C#|---0-0-|

D#|-----------------------------------------------|
A#|----------------------------0--0-0-0-----------|
F#|---14---14-14-14--1--1-1-1--0--0-0-0--4--4-4-4-|
C#|---X----X--X--X---2--2-2-2--3--3-3-3--5--5-5-5-|
G#|---12---12-12-12--2--2-2-2--3--3-3-3--5--5-5-5-|
C#|---0----0--0--0---2--2-2-2--3--3-3-3--5--5-5-5-|

D#|------------------------------------------------------------|
A#|------------------------------------------------------------|
F#|---14-14-14-14-14-14-14-14-14-14-14-14-14-14-14-14-14-14-14-|
C#|---X--X--X--X--X--X--X--X--X--X--X--X--X--X--X--X--X--X--X--|
G#|---12-12-12-12-12-12-12-12-12-12-12-12-12-12-12-12-12-12-12-|
C#|------------------------------------------------------------|

D#|------------------|
A#|------------------|
F#|------------------|
C#|------------------|
G#|------------------|
C#|---10-10-10-10-10-|

D#|---------------|
A#|---------------|
F#|---------------| X4
C#|---12--0-0--12-|
G#|---12--0-0--12-|
C#|---12--0-0--12-|

D#|---------------------------------------------------------|
A#|---------------------------------------------------------|
F#|---------------------------------------------------------|
C#|---12--0-0-------12--0-0-------12--0-0-------12--0-0--12-|
G#|---12--0-0-------12--0-0-------12--0-0-------12--0-0--12-|
C#|---12--0-0--12\--12--0-0--15\--12--0-0--17\--12--0-0--12-|


| /  slide up
| \  slide down
| h  hammer-on
| p  pull-off
| ~  vibrato
| +  harmonic
| x  Mute note
===============================================================================
Comments