Reuben - Lets Stop Hanging Out Chords & Tabs

 

Lets Stop Hanging Out Chords & Tabs

Reuben Chords & Tabs

Version: 2 Type: Tab 0 ratings
1 star 2 stars 3 stars 4 stars 5 stars
comments

Lets Stop Hanging Out Tab

Song: Let's stop hanging out
Band: Reuben
Album: Racecar is racecar backwards
Tabber: Daniel King
Email: neo8549@hotmail.com

*If you have used this tab please rate

Intro

E|-----------------------------------------|
B|-----------------------------------------|
G|-----------------------------------------|
D|-----------------------------------------|
A|--5-5--5-5-5--5-5-5--5-5-5---------------| *2
D|--0-0--0-0-0--0-0-0--0-0-0---------------|

Verse

E|-----------------------------------------|
B|-----------------------------------------|
G|-----------------------------------------|
D|-----------------------------------------|
A|--5-5-5--5-5-5--5-5-5--5-5-5-------------| *2
D|--0-0-0--0-0-0--0-0-0--0-0-0-------------|

E|-----------------------------------------|
B|-----------------------------------------|
G|-----------------------------------------|
D|-----------------------------------------|
A|--5-5-5--5-5-5--5-5-5--5-5-5-------------|
D|--3-3-3--3-3-3--3-3-3--3-3-3-------------| *2

Repeat again but second time round for the last 2 bars
play this instead;

E|-----------------------------------------|
B|-----------------------------------------|
G|-----------------------------------------|
D|--7-7-7--7-7-7---------------------------|
A|--5-5-5--5-5-5---------------------------|
D|--5-5-5--5-5-5---------------------------|

Chorus

E|-----------------------------------------|
B|-----------------------------------------|
G|-----------------------------------------|
D|--11-11-11-11--12-12-13-13---------------|
A|--9--9--9--9---10-10-11-11---------------|
D|--9--9--9--9---10-10-11-11---------------|

E|-----------------------------------------|
B|-----------------------------------------|
G|---9-9-9--7-7----9-9-9--7-7--------------|
D|-----------------------------------------|
A|---7-7-7--5-5----7-7-7--5-5--------------|
D|-0-------------0-------------------------|

Repeat Chorus
Return to Verse

Bridge (Part1)
[ Tab from: http://www.guitartabs.cc/tabs/r/reuben/lets_stop_hanging_out_tab_ver_2.html ]
E|-----------------------------------------|
B|-----------------------------------------|
G|-----------------------------------------|
D|--0-0-10-0-10-12-0-4-0-4-0-4-3-2---------|
A|--0-0-10-0-10-12-0-4-0-4-0-4-3-2---------|
D|--0-0-10-0-10-12-0-4-0-4-0-4-3-2---------|

E|-----------------------------------------|
B|-----------------------------------------|
G|-----------------------------------------|
D|--0-0-10-0-10-12-0-4-0-4-0-4-5-6---------|
A|--0-0-10-0-10-12-0-4-0-4-0-4-5-6---------|
D|--0-0-10-0-10-12-0-4-0-4-0-4-5-6---------|

E|-----------------------------------------|
B|-----------------------------------------|
G|-----------------------------------------|
D|--0-0-10-0-10-12-0-4-0-4-4-3-2-----------|
A|--0-0-10-0-10-12-0-4-0-4-4-3-2-----------|
D|--0-0-10-0-10-12-0-4-0-4-4-3-2-----------|

E|-----------------------------------------|
B|--------Harmonics!-----------------------|
G|--------|--------|-----------------------|
D|--0-0-10-12-12-12-4-0-4-0-4-5-6----------|
A|--0-0-10-12-12-12-4-0-4-0-4-5-6----------|
D|--0-0-10-12-12-12-4-0-4-0-4-5-6----------|

Bridge (Part2)

E|-----------------------------------------|
B|-----------------------------------------|
G|--8-8-8-8-8-8-8-8--9-9-9-9-9-9-9-9-------|
D|-----------------------------------------|
A|--6-6-6-6-6-6-6-6--7-7-7-7-7-7-7-7-------|
D|-----------------------------------------|

E|-----------------------------------------|
B|-----------------------------------------|
G|--8-8-8-8-8-8-8-8--7-7-7-7-7-7-7-7-------|
D|-----------------------------------------|
A|--6-6-6-6-6-6-6-6--5-5-5-5-5-5-5-5-------|
D|--4-4-4-4-4-4-4-4--3-3-3-3-3-3-3-3-------|

E|-------------------------------------------|
B|-------------------------------------------|
G|--5-5-5-5-5-5-5-5---9--9--9--9--9--9--9--9-|
D|-------------------------------------------|
A|--3-3-3-3-3-3-3-3---7--7--7--7--7--7--7--7-|
D|--1-1-1-1-1-1-1-1--10-10-10-10-10-10-10-10-|

E|-----------------------------------------|
B|-----------------------------------------|
G|-5-------8-------10------8-------9-------|
D|-x-(*16)-x-(*8)--x--(*8)-x-(*16)-x-(*16)-|
A|-3-------6-------8-------6-------7-------|
D|-----------------------------------------|

E|-----------------------------------------|
B|-----------------------------------------|
G|--5-------8-------10-------12------------|
D|--x-(*16)-x-(*8)--x--(*8)--x--(*32)------|
A|--3-------6-------8--------10------------|
D|-----------------------------------------|
Comments