Reuben - Eating Only Apples Chords & Tabs

 

Eating Only Apples Chords & Tabs

Reuben Chords & Tabs

Version: 1 Type: Tab 0 ratings
1 star 2 stars 3 stars 4 stars 5 stars
comments

Eating Only Apples Tab

   
this is my second tab so forgive the naff parts, especially the chorus.
overall though i think it goes well when played over the album. so have fun!

tuning : drop Db (Db Ab Db Gb bb eb)

(verse part is bass aranged for guitar. the bits in brackets are the guitar parts)


 "sheeeeeeeeeeeeeeeeeeeeeeeeeeeeeeeee
eb-----------------------------------|
bb-----------------------------------|
Gb-----------------------------------|
Db-----------------------------------|
Ab-----------------------------------|
Db---0-0-0-0-0-0-0-0-0-0-0-0-0-0-0-0-|

     kis - ses    me    like  mu-sic
eb-----------------------------------|
bb-----------------------------------|
Gb-----------------------------------|
Db-----------------------------------|
Ab---3-3-3-2-2-2-3-3-3-2-2-2-0-0-----|
Db-------------------------------5~~~|

       i dont  pretend  that  i
eb-----------------------------------|
bb-----------------------------------|
Gb-----------------------------------|
Db-----------------------------------|
Ab-----------------------------------|
Db---0-0-0~~~~~~~~~~~~~~~~~~~~~~~~~~~|

   liiiike iiiiiiit!
eb-----------------------------------|
bb--------------------------(7)------|
Gb--------------------------(7)------|
Db--------------------03-0--(5)------|
Ab-------------------3----3----------|
Db-3-3-3-3-3-3-3-3-3-----------------| 

  and heeeeeeeeeeeeeeeeeeeeeeeeeeeeer
eb-----------------------------------|
bb-----------------------------------|
Gb-----------------------------------|
Db-----------------------------------|
Ab-----------------------------------|
Db---0-0-0-0-0-0-0-0-0-0-0-0-0-0-0-0-|

     lips   are   soft   and  swedish
eb-----------------------------------|
bb-----------------------------------|
Gb-----------------------------------|
Db-----------------------------------|
Ab---3-3-3-2-2-2-3-3-3-2-2-2-0-0-----|
Db-------------------------------5-5-|

    she   leaves   me   gasping   for 
eb-----------------------------------|
bb-----------------------------------|
Gb-----------------------------------|
Db-----------------------------------|
Ab-----------------------------------|
Db-----------------------------------|

   mooooooooooooore!!
eb-----------------------------------|
bb-----------------------------------|
Gb-----------------------------------|
Db--------------------03-0-----------|
Ab-------------------3----3----------|
Db-3-3-3-3-3-3-3-3-3-----------------| 


pre-chorus
(guitar with mucho distortion kicks in)


eb-----------------------------------|
bb-----------------------------------|
Gb-7-7-7-7-7---7-7-7-7-7-------------|
Db-7-7-7-7-7---7-7-7-7-7-------------|
Ab-5-5-5-5-5---5-5-5-5-5-------------|
Db-----------------------3-----------| x3

eb-----------------------------------|
bb-----------------------------------|
Gb-----------------------------------|
Db-----------------------------------|
Ab---3-3-3-2-2-2-3-3-3-2-2-2-0-0-----|
Db-------------------------------5-5-|


Chorus (not too sure aboot this bit but if your unsure just play power chords of
the verse with loads of distortion)

  SUUUUUUUUUUMMMMEEEEEEEEERRRRRRR!!
eb-----------------------------------|
bb-----------------------------------|
Gb-7-7-7-7-7-7-7-7-7-7-7-7-7-7-7-7---|
Db-7-7-7-7-7-7-7-7-7-7-7-7-7-7-7-7---|
Ab-5-5-5-5-5-5-5-5-5-5-5-5-5-5-5-5---|
Db-----------------------------------|

  bleeds   in   to   my   skin   and
eb-----------------------------------|
bb-----------------------------------|
Gb-9-9-9-9-9-9-9-9-9-9-9-9-9-9-9-9---|
Db-9-9-9-9-9-9-9-9-9-9-9-9-9-9-9-9---|
Ab-7-7-7-7-7-7-7-7-7-7-7-7-7-7-7-7---|
Db-----------------------------------|

       paints me the colour
eb-----------------------------------|
bb-----------------------------------|
Gb-----------------------------------|
Db-----------------------------------|
Ab-----------------------------------|
Db---0-0-0~~~~~~~~~~~~~~~~~~~~~~~~~~~|

   GOOLLDDEEEENNNN!!!
eb-----------------------------------|
bb-----------------------------------|
Gb-9-9-9-9-9-9-9-9-9-----------------|
Db-9-9-9-9-9-9-9-9-9--03-0-----------|
Ab-7-7-7-7-7-7-7-7-7-3----3----------|
Db-----------------------------------|

  NOW GOOOOOOOOOOOOOOOOOOOOOOOOOO!
eb-----------------------------------|
bb-----------------------------------|
Gb-7-7-7-7-7-7-7-7-7-7-7-7-7-7-7-7---|
Db-7-7-7-7-7-7-7-7-7-7-7-7-7-7-7-7---|
Ab-5-5-5-5-5-5-5-5-5-5-5-5-5-5-5-5---|
Db-----------------------------------|
[ Tab from: http://www.guitartabs.cc/tabs/r/reuben/eating_only_apples_tab.html ]
   IM   LEFT   A-LONE   EX-AUS-TED
eb-----------------------------------|
bb-----------------------------------|
Gb-9-9-9-9-9-9-9-9-9-9-9-9-9-9-9-9---|
Db-9-9-9-9-9-9-9-9-9-9-9-9-9-9-9-9---|
Ab-7-7-7-7-7-7-7-7-7-7-7-7-7-7-7-7---|
Db-----------------------------------|

  i pick  myself   up   off   the 
eb-----------------------------------|
bb-----------------------------------|
Gb-----------------------------------|
Db-----------------------------------|
Ab-----------------------------------|
Db---0-0-0~~~~~~~~~~~~~~~~~~~~~~~~~~~|

   rowowoad
eb-----------------------------------|
bb-----------------------------------|
Gb-9-9-9-9-9-9-9-9-9-----------------|
Db-9-9-9-9-9-9-9-9-9-----------------|
Ab-7-7-7-7-7-7-7-7-7-----------------|
Db-----------------------------------|


bridge


   and i wont come down to earth
eb-----------------------------------|
bb-----------------------------------|
Gb-----------------------------------|
Db-------5---------3-------0---------|
Ab-------5---------3-------0---------|
Db-------5---------3-------0---------|

   its a long way  down to
eb-----------------------------------|
bb-----------------------------------|
Gb-----------------------------------|
Db-------5---------3-------0---------|
Ab-------5---------3-------0---------|
Db-------5---------3-------0---------|


    no i wont come down to earth
eb-----------------------------------|
bb-----------------------------------|
Gb-----------------------------------|
Db-------5---------3-------0---------|
Ab-------5---------3-------0---------|
Db-------5---------3-------0---------|


   its a long waay dooooown
eb-----------------------------------|
bb-----------------------------------|
Gb-----------------------------------|
Db-------5---------3-3-3-3-3-3-3-3-3-|
Ab-------5---------3-3-3-3-3-3-3-3-3-|
Db-------5---------3-3-3-3-3-3-3-3-3-|


outro
(palm muted)

eb-------------------------------------|
bb-------------------------------------|
Gb-------------------------------------|
Db-------------------------------------|
Ab-------------------------------------|
Db-0-0-0-0-4-0-0-6-0-0-7-0-10-10-10-10-|

eb---------------------------------|
bb---------------------------------|
Gb---------------------------------|
Db---------------------------------|
Ab---------------------------------|
Db-0-0-0-0-4-0-0-6-0-0-7-0-9-9-9-9-|

eb-------------------------------------|
bb-------------------------------------|
Gb-------------------------------------|
Db-------------------------------------|
Ab-------------------------------------|
Db-0-0-0-0-4-0-0-6-0-0-7-0-10-10-10-10-|

eb---------------------------------|
bb---------------------------------|
Gb---------------------------------|
Db---------------------------------|
Ab---------------------------------|
Db-0-0-0-0-4-0-0-6-0-0-7-0-9-9-9-9-|

eb-------------------------------------|
bb-------------------------------------|
Gb-------------------------------------|
Db-------------------------------------|
Ab-------------------------------------|
Db-0-0-0-0-4-0-0-6-0-0-7-0-10-10-10-10-|

eb---------------------------------|
bb---------------------------------|
Gb---------------------------------|
Db---------------------------------|
Ab---------------------------------|
Db-0-0-0-0-4-0-0-6-0-0-7-0-9-9-9-9-|

eb-------------------------------------|
bb-------------------------------------|
Gb-------------------------------------|
Db-------------------------------------|
Ab-------------------------------------|
Db-0-0-0-0-4-0-0-6-0-0-7-0-10-10-10-10-|

eb---------------------------------|
bb---------------------------------|
Gb---------------------------------|
Db---------------------------------|
Ab---------------------------------|
Db-0-0-0-0-4-0-0-6-0-0-7-0-9-9-9-9-|

           
           (mucho distortion)

                   GO!

eb-------------------------------------|
bb-------------------------------------|
Gb-------------------------------------|
Db-0-0-0-0-4-0-0-6-0-0-7-0-10-10-10-10-|
Ab-0-0-0-0-4-0-0-6-0-0-7-0-10-10-10-10-|
Db-0-0-0-0-4-0-0-6-0-0-7-0-10-10-10-10-|

eb---------------------------------|
bb---------------------------------|
Gb---------------------------------|
Db-0-0-0-0-4-0-0-6-0-0-7-0-9-9-9-9-|
Ab-0-0-0-0-4-0-0-6-0-0-7-0-9-9-9-9-|
Db-0-0-0-0-4-0-0-6-0-0-7-0-9-9-9-9-|
eb-------------------------------------|
bb-------------------------------------|
Gb-------------------------------------|
Db-0-0-0-0-4-0-0-6-0-0-7-0-10-10-10-10-|
Ab-0-0-0-0-4-0-0-6-0-0-7-0-10-10-10-10-|
Db-0-0-0-0-4-0-0-6-0-0-7-0-10-10-10-10-|

eb---------------------------------|
bb---------------------------------|
Gb---------------------------------|
Db-0-0-0-0-4-0-0-6-0-0-7-0-9-9-9-9-|
Ab-0-0-0-0-4-0-0-6-0-0-7-0-9-9-9-9-|
Db-0-0-0-0-4-0-0-6-0-0-7-0-9-9-9-9-|



THE END
Comments