Reuben - Blamethrower Chords & Tabs

 

Blamethrower Chords & Tabs

Reuben Chords & Tabs

Version: 2 Type: Tab 0 ratings
1 star 2 stars 3 stars 4 stars 5 stars
comments

Blamethrower Tab

ARTIST: Reuben
TITLE: Blamethrower
ALBUM: Very Fast, Very Dangerous
TABBED BY: kryptonite22
TUNING: Drop Db
NOTES: Tabbed from the radio rip, which is quite poor quality, so consequently a couple
of notes may be off, but I would expect this tab to be pretty much perfect.


INTRO/VERSE RIFF
e|---------------------------------------------|
B|---------------------------------------------|
G|---------------------------------------------|
D|---------------------------------------------|
A|----4-4-4------------------------------------|
D|--0-------0-0-0-4-4-4-5-5-5-6-6-6------------|

PRE-CHORUS
e|---------------------------------------------|
B|---------------------------------------------|
G|---------------------------------------------|
D|--66-77-8--xx--66-77-8--xxx------------------|
A|--66-77-8--xx--66-77-8--xxx------------------|
D|--66-77-8--xx--66-77-8--xxx------------------|

CHORUS
e|---------------------------------------------|
B|---------------------------------------------|
G|-----66--------------------------------------|
D|--00-66-6h88-6h88-6h8------------------------|
A|--00-44-6h88-6h88-6h8------------------------|
D|--00----6h88-6h88-6h8------------------------|

THEN REPEAT PRE-CHORUS
[ Tab from: http://www.guitartabs.cc/tabs/r/reuben/blamethrower_tab_ver_2.html ]
THEN THE PART WITH JUST THE BASS, WHEN JAMIE IS TALKING, BEFORE THE GUITAR COMES IN
e|---------------------------------------------|
B|---------------------------------------------|
G|---------------------------------------------|
D|--00----00----00----00----00-----------------|
A|--00----00----00----00----00-----------------|
D|--00-3^-00-3^-00-3^-00-3^-00-3^--------------|

e|---------------------------------------------|
B|---------------------------------------------|
G|---------------------------------------------|
D|--00-00-00-00-1111---------------------------|
A|--00-00-00-00-1111---------------------------|
D|--00-00-00-00-1111---------------------------|
    .. .. .. .. ....

PRE-CHORUS

CHORUS

3RD GUITAR DUBBED OVER THE TOP
e|---------------------------------------------|
B|--15----12-----------------------------------|
G|-----12----12b-------------------------------|
D|---------------------------------------------|
A|---------------------------------------------|
D|---------------------------------------------|

BASS

e|---------------------------------------------|
B|---------------------------------------------|
G|----666--------------------------------------|
D|--0-666-000-444-555-666----------------------|
A|--0-444-000-444-555-666----------------------|
D|--0-----000-444-555-666----------------------|

THEN
e|---------------------------------------------|
B|---------------------------------------------|
G|----13-13-13-13---13-13/11-11----------------|
D|--0-x--x--x--x--0-x--x-/x--x-----------------|
A|--0-11-11-11-11-0-11-11/9--9-----------------|
D|--0-------------0----------------------------|
Comments