Reset - Why Chords & Tabs

 

Why Chords & Tabs

Reset Chords & Tabs

Version: 1 Type: Bass Tab 0 ratings
1 star 2 stars 3 stars 4 stars 5 stars
comments

Why Bass Tab

Reset - Why
Tabbed By: Nick Lemoine
EMail: nic_skate@hotmail.com
Album: No Worries

                              Why
G|--------------------------------------------------------------------------- 
D|--------------------------------------------------------------------------- 
A|----------------0>------------5>-0----------------------------------------- 
E|--0-00-2--4--------4---2>--00------0>-0-00-2-4----------------------------- 

G|--------------------------------------------------------------------------- 
D|----------7>----6>------4>------------------------------------------------- 
A|-0>-2--4>----------------------0>---2--4>----------x2---------------------- 
E|--------------------------------------------------------------------------- 
WHYYYYYYYYYY..... 
G|--------------------------------------------------------------------------- 
D|--------------------------------------------------------------------------- 
A|----------------------------5>-0-------------------X2---------------------- 
E|-55555555555--4-----2>--0--------0>---2---4>------------------------------- 
[ Tab from: http://www.guitartabs.cc/tabs/r/reset/why_btab.html ]
G|--------------------------------------------------------------------------- 
D|--------------------------------------------------------------------------- 
A|---0>-------------5>--0---------------0>-0------------5>------------------- 
E|-------4---2>-0--------0>-0-00---2--4--------4--2>-0-----0-2-4------------- 

G|--------------------------------------------------------------------------- 
D|--------------------------------------------------------------------------- 
A|---5>--------0>--4>-----5>----------5----2->-----0>------------------------ 
E|--------2>-----------------5----2------------------------------------------ 

G|--------------------------------------------------------------------------- 
D|---same as whyyyyyyyyyyy--------------------------------------------------- 
A|---------------------------------x2---------------------------------------- 
E|--------------------------------------------------------------------------- 
ending 
G|--------------------------------------------------------------------------- 
D|--------------------------------------------------------------------------- 
A|--00-----00----00-4--00----2-4-0>------------------------------------------ 
E|------00----0-----------00-------------------------------------------------

nic_skate@hotmail.com
Comments