Reset - Pressure Chords & Tabs

 

Pressure Chords & Tabs

Reset Chords & Tabs

Version: 1 Type: Tab 0 ratings
1 star 2 stars 3 stars 4 stars 5 stars
comments

Pressure Tab

Intro/Verse

E-------------------------------------------------------------------------------
B-------------------------------------------------------------------------------
F----------------------------7-7-7-------------------7-7-7----------------------
C--4-4-4-5-5-5-4-4-4-5-5-5---7-7-7---7-7-7-7---2x----7-7-7--7-7-7-7-------------
G----------------------------5-5-5---7-7-7-7---------5-5-5--7-7-7-7-------------
D------------------------------------5-5-5-5----------------5-5-5-5-------------
Pm.........................

 Chorus
[ Tab from: http://www.guitartabs.cc/tabs/r/reset/pressure_tab.html ]
play all of this part 5 x
-------------------------------------------------------------------------------
-------------------------------------------------------------------------------
-------------------------------------------------------------------------------
--2-2---4-------5-5-5-5-5-5---7-7-7-7-7-7-------10-10-10-10-10-10-10-10-10-----
--2-2---4--4x---5-5-5-5-5-5---7-7-7-7-7-7---5x--8--8--8--8--8--8--8--8--8------
--0-0---2-------3-3-3-3-3-3---5-5-5-5-5-5-------8--8--8--8--8--8--8--8--8------

--------------------------------------------------------------------------------
--------------------------------------------------------------------------------
----------------------4-4-4-4-4-4-4-4-4-----------------------------------------
--6-6-6-6-6-6-6-6-6---4-4-4-4-4-4-4-4-4---4-4-4-4-4-4-4-4-4----2-2--4-2-2-2-----
--6-6-6-6-6-6-6-6-6---2-2-2-2-2-2-2-2-2---4-4-4-4-4-4-4-4-4-2x-2-2--4-2-2-2-----
--4-4-4-4-4-4-4-4-4-----------------------2-2-2-2-2-2-2-2-2----0-0--2-0-0-0-----
Pm                                                                    .....
Comments