Reo Speedwagon - Riding The Storm Out (complete) Chords & Tabs

 

Riding The Storm Out (complete) Chords & Tabs

Reo Speedwagon Chords & Tabs

Version: 1 Type: Tab 0 ratings
1 star 2 stars 3 stars 4 stars 5 stars
comments

Riding The Storm Out (complete) Tab

   
reo speedwagon
Riding the storm out

Gtr I (E A D G B E) - 'Untitled'
Gtr II (E A D G B E) - 'Untitled'

 Intro
  Moderately Fast Rock Q=142
  N.C.   Am
 4/4
  Gtr I
|------------|------------|-------------------|
|------------|------------|------------0------|
|--------9-9-|--9---------|-(9)----(9)-0------|
|--------7-7-|--7---------|-(7)----(7)-0------|
|--------0-0-|--0---------|-(0)----(0)--------|
|------------|------------|--------------12\--|
|
| Gtr II
|--------0---|-(0)--------|-(0)---------------|
|--------1---|-(1)--------|-(1)---------------|
|--------2---|-(2)--------|-(2)---------------|
|--------2---|-(2)--------|-(2)---------------|
|--------0---|-(0)--------|-(0)---------------|
|------------|------------|-------------------|


             Bm  C           Bm         Am
         PM|   PM
|------------------|-----------------------|
|------1---------5-|--5--5---3-(3)---^0----|
|--0h2-2-----4---5-|--5--5---4-(4)---^0----|
|--0h2-------4---5-|--5--5---4-(4)---------|
|--------0-0---0---|-----------------------|
|------------------|-----------------------|
|
|          PM            PM|       PM|
|-^0---0-----------|--------------------^0-|
|-^1---1-----3---5-|-(5)-----3-(3)------^1-|
|-^2---2-----4---5-|-(5)-----4-(4)------^2-|
|-^2---------4---5-|-(5)-----4-(4)------^2-|
|-^0-------0-------|-----0-0-------0--0-^0-|
|------------------|-----------------------|


              Bm  C           Bm         Am
          PM|   PM          PM      PM
|-------------------|-----------------------|
|-----------------5-|-(5)-------------------|
|-------2-----4---5-|-(5)-----7-(7)---------|
|---2---------4---5-|-(5)-----7-(7)---------|
|---0-----0-0---0---|-------0---------7\----|
|-------------------|---------------0-------|
|
|         PM|             PM|
|-^(0)--------------|--------------------^0-|
|-^(1)--1-----3---5-|-(5)-----3-(3)------^1-|
|-^(2)--2-----4---5-|-(5)-----4-(4)-4-4--^2-|
|-^(2)--2-----4---5-|-(5)-----4-(4)-4-4--^2-|
|-^(0)----0-0-------|-----0-0------------^0-|
|-------------------|-----------------------|


               Bm  C           Bm          Am
           PM|   PM          PM
|--------------------|------------------------|
|--------1-----3---5-|-(5)-----3-(3)---5p3--0-|
|--------2-----4---5-|-(5)-----4-(4)--------0-|
|---0h=2-------4---5-|-(5)-----4-(4)----------|
|---0------0-0---0---|-------0----------------|
|--------------------|------------------------|
|
|          PM|
|-^(0)---------------|---------------------^0-|
|-^(1)---1-----3---5-|-(5)-5-5-3-(3)-3-3---^1-|
|-^(2)---2-----4---5-|-(5)-5-5-4-(4)-4-4---^2-|
|-^(2)---2-----4---5-|-(5)-5-5-4-(4)-4-4---^2-|
|-^(0)-----0-0-------|---------------------^0-|
|--------------------|------------------------|


              Bm        C           Bm          Am
          PM|
|-------------------------|---------------------0----|
|-------1-----------------|--------------------------|
|-------2---------9b11==9-|-(9)r============(9)---0--|
|---2---------0-----------|--------------------------|
|---0-----0-0-0-0---------|--------------------------|
|-------------------------|--------------------------|
|
|           PM
|-^(0)--0-----------------|--------------------------|
|-^(1)--1-----3---------5-|-(5)-5-x-3-(3)-3--3--1----|
|-^(2)--2-----4---------5-|-(5)-5-x-4-(4)-4--4--2----|
|-^(2)--------4---------5-|-(5)-5-x-4-(4)-4--4--2----|
|-^(0)------0-------------|--------------------------|
|-------------------------|--------------------------|


 Verse
  Am          Bm C           Bm          Am
|------------------|-------------------0----|
|--------1----3--5-|-(5)---x-3-(3)---3------|
|--------2----4--5-|-(5)---x-4-(4)----------|
|-0h=2-----------5-|-(5)---x-4-(4)--------0-|
|-0-(0)------------|---------------0--------|
|------------------|------------------------|
|
|           PM           PM|       PM|
|---^0---0---------|---------------------^0-|
|---^1---1----3--5-|-(5)-----3-(3)-------^1-|
|---^2---2----4--5-|-(5)-----4-(4)-------^2-|
|---^2--------4--5-|-(5)-----4-(4)-------^2-|
|---^0------0------|-----0-0-------0-0---^0-|
|------------------|------------------------|


              Bm  C           Bm        Am
|-------------------|-------------------------|
|-------------3---5-|-(5)-----3-(3)-----------|
|-------2---x-4---5-|-(5)-----4-(4)-----------|
|-------2---x-4-4-5-|-(5)---5-4-(4)-4-4--2-2--|
|---0---0-----------|---------------0-0--0-0--|
|-------------------|-------------------------|
|
|         PM|             PM|
|-^(0)--------------|-------------------^0----|
|-^(1)--1-----3---5-|-(5)-----3-(3)-----^1----|
|-^(2)--2-----4---5-|-(5)-----4-(4)-4-4-^2----|
|-^(2)--2-----4---5-|-(5)-----4-(4)-4-4-^2----|
|-^(0)----0-0-------|-----0-0-----------^0----|
|-------------------|-------------------------|


              Bm C             Bm        Am
            PM               PM
|--------------------|------------------------|
|-------1-----3------|---------3-(3)----------|
|-------2-----4---5--|-(5)-----4-(4)----------|
|---2-------------5--|-(5)---0-4-(4)---0--2-2-|
|---0-------0----(4)-|-(4)-------------0--0-0-|
|--------------------|------------------------|
|
|         PM|
|-^(0)---------------|-------------------^0---|
|-^(1)--1-----3---5--|-(5)-5-5-3-(3)-3-3-^1---|
|-^(2)--2-----4---5--|-(5)-5-5-4-(4)-4-4-^2---|
|-^(2)--2-----4---5--|-(5)-5-5-4-(4)-4-4-^2---|
|-^(0)----0-0--------|-------------------^0---|
|--------------------|------------------------|


             Bm  C           Bm                   Am
                 <
           PM  PM               PM--------------|
|------------------|---------------------------------|
|-------1----3---5-|-(5)-----------------------------|
|-------2----4---5-|-(5)---0-------------------------|
|---2--------4---5-|-(5)---0-------------------------|
|---0------0---0---|-----------14-12--12-10-9-7-7-0--|
|------------------|---------------------------------|
|
|          PM
|-^(0)--0----------|---------------------------------|
|-^(1)--1----3---5-|-(5)-5-x-3----(3)-----3---3---1--|
|-^(2)--2----4---5-|-(5)-5-x-4----(4)-----4---4---2--|
|-^(2)-------4---5-|-(5)-5-x-4----(4)-----4---4---2--|
|-^(0)-----0-------|---------------------------------|
|------------------|---------------------------------|


           Bm  C           Bm        Am
                         PM
|----------------|---------0-(0)--------|
|-----1----3-----|---------3-(3)---0----|
|-----2----4---5-|-(5)-----4-(4)--------|
|-----2----4-x-5-|-(5)---0-------4------|
|--0-------------|---------------0------|
|----------------|----------------------|
|
|        PM            PM|       PM|
|-^0--0----------|-------------------^0-|
|-^1--1----3---5-|-(5)-----3-(3)-----^1-|
|-^2--2----4---5-|-(5)-----4-(4)-----^2-|
|-^2-------4---5-|-(5)-----4-(4)-----^2-|
|-^0-----0-------|-----0-0-------0-0-^0-|
|----------------|----------------------|


              Bm C           Bm          Am
    PM
|------------------|------------------------|
|-------1-----3--5-|-(5)--------------------|
|-------2-----4--5-|-(5)--------------------|
|-------2-----4--5-|-(5)--------------------|
|---0-------0------|---------7S14----14\----|
|------------------|---------------0------0-|
|
|         PM|            PM|
|-^(0)-------------|---------------------^0-|
|-^(1)--1-----3--5-|-(5)-----3-(3)-------^1-|
|-^(2)--2-----4--5-|-(5)-----4-(4)-4--4--^2-|
|-^(2)--2-----4--5-|-(5)-----4-(4)-4--4--^2-|
|-^(0)----0-0------|-----0-0-------------^0-|
|------------------|------------------------|


               Bm  C   C/G     Bm/F#     Am
             PM  PM          PM
|--------------------|---------0-(0)--------|
|--------------------|---------3-(3)--------|
|---0h=2-------4---5-|-(5)-----4-(4)---0-0h=|
|---0h=2-------4---5-|-(5)---0-4-(4)-4-0----|
|---0----0---0---0---|---------------0------|
|--------------------|----------------------|
|
|          PM|
|-^(0)---------------|----------------------|
|-^(1)---1-----3---5-|--5--5-5-3-(3)-3-3-1--|
|-^(2)---2-----4---5-|--5--5-5-4-(4)-4-4-2--|
|-^(2)---2-----4---5-|--5--5-5-4-(4)-4-4-2--|
|-^(0)-----0-0-------|-------------------0--|
|--------------------|----------------------|


    PM--|
|-----------------|----------|
|-----------------|----------|
|-2---------------|----------|
|-----------7-7-7-|-7--------|
|---0-0-0-0-0-0-0-|-0--------|
|-----------------|----------|
|
|-----------------|----------|
|-1-1-1-1-1-1-1-1-|-1--------|
|-2-2-2-2-2-2-2-2-|-2--------|
|-2-2-2-2-2-2-2-2-|-2--------|
|-0-0-0-0-0-0-0-0-|-0--------|
|-----------------|----------|


 Pre-Chorus
  D         N.C.                   D             Am
|---------x---|------------------|-----------------|---------------|
|-------x-----|------------------|-----------------|---------------|
|-7---------9-|-(9)------(9)-0-7-|-7---(7)s=5s=2-2-|-(2)-----------|
|-7---------7-|-(7)------(7)-----|-7---(7)s=5s=2-2-|-(2)-----------|
|-5---------0-|-(0)------(0)-----|-5---(5)s=3----0-|-(0)-----------|
|-------------|------------------|-----------------|----------0----|
|
|-2-----------|------------------|-2-2-----------0-|-(0)-----------|
|-3-----------|------------------|-3-3-----------1-|-(1)-----------|
|-2-----------|------------------|-2-2-----------2-|-(2)-----------|
|-0-----------|------------------|-0-0-----------2-|-(2)-----------|
|-----------0-|-(0)--------------|---------------0-|-(0)-----------|
|-------------|------------------|-----------------|----------0-3--|


 Chorus
  F        G    Am           G5  F5     F     G    Am                 G5  F5
|-1----1-x-3----5-|-(5)------------|----1-1-x-3--3-5-|-(5)--(5)-x-x----------|
|-1----1-x-3----5-|-(5)------------|----1-1-x-3--3-5-|-(5)--(5)-x-x----------|
|-2----2-x-4----5-|-(5)------------|----2-2-x-4--4-5-|-(5)--(5)-x-x----------|
|-3----3-x-5----7-|-(7)------------|----3-3-x-5--5-7-|-(7)--(7)-x-x----------|
|-3----3-x-5--5-7-|-(7)------5-5-3-|-3--3-3-x-5--5-7-|-(7)--(7)-x-x---5-5-3--|
|-1--0-1-x-3--3-5-|-(5)----0-3-3-1-|-1--1-1-x-3--3-5-|-(5)--(5)-x-x-0-3-3-1--|
|
|-1----1-x-3----5-|-(5)------------|----1-1-x-3--3-5-|-(5)--(5)-x-x----------|
|-1----1-x-3----5-|-(5)------------|----1-1-x-3--3-5-|-(5)--(5)-x-x----------|
|-2----2-x-4----5-|-(5)------------|----2-2-x-4--4-5-|-(5)--(5)-x-x----------|
|-3----3-x-5----7-|-(7)------------|----3-3-x-5--5-7-|-(7)--(7)-x-x----------|
|-3----3-x-5--5-7-|-(7)------5-5-3-|-3--3-3-x-5--5-7-|-(7)--(7)-x-x---5-5-3--|
|-1--0-1-x-3--3-5-|-(5)----0-3-3-1-|-1--1-1-x-3--3-5-|-(5)--(5)-x-x-0-3-3-1--|


     F  G    Am                 G5  F5     F     G    Am             Bm C
|----1--3--3-5-|-(5)--(5)-x-x---------|----1-1-x-3------|-----------------|
|----1--3--3-5-|-(5)--(5)-x-x---------|----1-1-x-3----1-|-(1)--1----------|
|----2--4--4-5-|-(5)--(5)-x-x---------|----2-2-x-4----2-|-(2)--2-----4--5-|
|----3--5--5-7-|-(7)--(7)-x-x---------|----3-3-x-5----2-|-(2)--2-----4--5-|
|-3--3--5--5-7-|-(7)--(7)-x-x---5-5-3-|-3--3-3-x-5--0---|----------0------|
|-1--1--3--3-5-|-(5)--(5)-x-x-0-3-3-1-|-1--1-1-x-3------|-----------------|
|
|                                                                PM|
|----1--3--3-5-|-(5)--(5)-x-x---------|----1-1-x-3------|-^0--------------|
|----1--3--3-5-|-(5)--(5)-x-x---------|----1-1-x-3----1-|-^1---1-----3--5-|
|----2--4--4-5-|-(5)--(5)-x-x---------|----2-2-x-4----2-|-^2---2-----4--5-|
|----3--5--5-7-|-(7)--(7)-x-x---------|----3-3-x-5----2-|-^2---2-----4--5-|
|-3--3--5--5-7-|-(7)--(7)-x-x---5-5-3-|-3--3-3-x-5--0---|-^0-----0-0------|
|-1--1--3--3-5-|-(5)--(5)-x-x-0-3-3-1-|-1--1-1-x-3------|-----------------|


          Bm        Am               Bm C
                     PM--|       PM|
|---------0-(0)--------|-----------------------|
|---------3-(3)--------|-------1--------17b20==|
|-(5)p==0-4-(4)---4----|-------2-----4---------|
|-(5)p==0-------4-4----|-------2-----4---------|
|--------------------0-|---0-----0-0-----------|
|----------------------|-----------------------|
|
|                                  PM
|-------------------^0-|-^(0)--0---------------|
|-(5)-5-5-3-(3)-3-3-^1-|-^(1)--1-----3---5-----|
|-(5)-5-5-4-(4)-4-4-^2-|-^(2)--2-----4---5-----|
|-(5)-5-5-4-(4)-4-4-^2-|-^(2)--------4---5-----|
|-------------------^0-|-^(0)------0-----------|
|----------------------|-----------------------|


                     Bm           Am
|-----------------------------------|
|-(17)r(17)b20==(17)r(17)-----------|
|-----------------------------------|
|-----------------------------------|
|-----------------------------------|
|-------------------------15\-----0-|
|
|-----------------------------------|
|--(5)---5--------x----3--(3)-3-3-1-|
|--(5)---5--------x----4--(4)-4-4-2-|
|--(5)---5--------x----4--(4)-4-4-2-|
|-----------------------------------|
|-----------------------------------|


 Second Verse
           Bm C           Bm        Am
|---------------|----------------------|
|----------3--5-|-(5)-----3-----3------|
|----------4--5-|-(5)-----4-----4-0----|
|----------4--5-|-(5)-----4-----4----0-|
|--0--0---------|----------------------|
|---------------|----------------------|
|
|        PM           PM|       PM|
|-^0--0---------|-------------------^0-|
|-^1--1----3--5-|-(5)-----3-(3)-----^1-|
|-^2--2----4--5-|-(5)-----4-(4)-----^2-|
|-^2-------4--5-|-(5)-----4-(4)-----^2-|
|-^0-----0------|-----0-0-------0-0-^0-|
|---------------|----------------------|


              Bm C           Bm        Am
            PM
|------------------|----------------------|
|-------------3--5-|-(5)-5-5-3-(3)-3-0----|
|-------2-----4--5-|-(5)-5-5-4-(4)-4-0--0-|
|---2---2-----4--5-|-(5)-5-5-4-(4)-4----0-|
|---0-------0------|----------------------|
|------------------|----------------------|
|
|         PM|            PM|
|-^(0)-------------|-------------------^0-|
|-^(1)--1-----3--5-|-(5)-----3-(3)-----^1-|
|-^(2)--2-----4--5-|-(5)-----4-(4)-4-4-^2-|
|-^(2)--2-----4--5-|-(5)-----4-(4)-4-4-^2-|
|-^(0)----0-0------|-----0-0-----------^0-|
|------------------|----------------------|


              Bm  C           Bm        Am
|-------------------|---------0-(0)--------3s|
|-----------------5-|-(5)-5---3-(3)----------|
|-------2-----4---5-|-(5)-5-0-4-(4)-4-0------|
|---2---2-----4---5-|-(5)-5-0-------4-0------|
|---0-------0---0---|------------------------|
|-------------------|------------------------|
|
|         PM|
|-^(0)--------------|-------------------^0---|
|-^(1)--1-----3---5-|-(5)-5-5-3-(3)-3-3-^1---|
|-^(2)--2-----4---5-|-(5)-5-5-4-(4)-4-4-^2---|
|-^(2)--2-----4---5-|-(5)-5-5-4-(4)-4-4-^2---|
|-^(0)----0-0-------|-------------------^0---|
|-------------------|------------------------|


                     Bm      C               Bm              Am
|---5--8-[5]-[5]-[5]-[5]-[5]-5-|-[5]-[5]-[5]-[5]----------------|
|------------------------------|------------------5h=8-5--------|
|------------------------------|-------------------------7p5----|
|------------------------------|-----------------------------7--|
|------------------------------|--------------------------------|
|------------------------------|--------------------------------|
|
|                 PM
|-^(0)----0--------------------|--------------------------------|
|-^(1)----1-----------3------5-|-(5)--5---x---3--(3)---3-3---1--|
|-^(2)----2-----------4------5-|-(5)--5---x---4--(4)---4-4---2--|
|-^(2)----------------4------5-|-(5)--5---x---4--(4)---4-4---2--|
|-^(0)------------0------------|--------------------------------|
|------------------------------|--------------------------------|


                   Bm C            Bm                   Am
|-----------------------|-------------------------------------|
|-----------------------|-------------------------------------|
|-[5]b5.5---------------|-------------5----b9==()r|
|---------7-(7)---------|--------5-7--------------------------|
|-----------------------|-----/7------------------------------|
|-----------------------|-------------------------------------|
|
|                PM            PM|        PM-|
|-^0---------0----------|-------------------------------^-0---|
|-^1---------1-----3--5-|-(5)------3-(3)----------------^-1---|
|-^2---------2-----4--5-|-(5)------4-(4)----------------^-2---|
|-^2---------------4--5-|-(5)------4-(4)----------------^-2---|
|-^0-------------0------|------0-0--------0---0---------^-0---|
|-----------------------|-------------------------------------|


                    Bm C                    Bm               Am
|------------------------|------------------5-5--------------------|
|------------------------|-------5-8b10-(8)-----8b10-(8)-----------|
|-()------------------|-------------------------------5-0-------|
|---------------------|------------------------------------7p5--|
|---------------------|-()-----------------------------------|
|------------------------|-----------------------------------------|
|
|               PM|              PM-----|
|-^(0)-------------------|-----------------------------------^0----|
|-^(1)-------1------3--5-|--(5)-------------3--------(3)-----^1----|
|-^(2)-------2------4--5-|--(5)-------------4--------(4)-4-4-^2----|
|-^(2)-------2------4--5-|--(5)-------------4--------(4)-4-4-^2----|
|-^(0)----------0-0------|-------0-------0-------------------^0----|
|------------------------|-----------------------------------------|


              Bm C   C/G     Bm/F#     Am
|------------------|---------------------|-----------------|----------|
|-------x--------5-|-(5)-----3-(3)-------|-----------------|----------|
|-------x--------5-|-(5)---0-4-(4)-4-0---|-------------9-9-|-9--------|
|-------x--------5-|-(5)---0-4-(4)-4-----|---------7-7-7-7-|-7--------|
|---0-------0------|-------0-----------0-|-0-0-0-0-0-0-0-0-|-0--------|
|------------------|---------------------|-----------------|----------|
|
|         PM|
|-^(0)-------------|---------------------|-----------------|----------|
|-^(1)--1-----3--5-|--5--5-5-3-(3)-3-3-1-|-1-1-1-1-1-1-1-1-|-1--------|
|-^(2)--2-----4--5-|--5--5-5-4-(4)-4-4-2-|-2-2-2-2-2-2-2-2-|-2--------|
|-^(2)--2-----4--5-|--5--5-5-4-(4)-4-4-2-|-2-2-2-2-2-2-2-2-|-2--------|
|-^(0)----0-0------|-------------------0-|-0-0-0-0-0-0-0-0-|-0--------|
|------------------|---------------------|-----------------|----------|


 Pre-Chorus
  D        N.C.              D             Am
|------------|-------------|-----------------|---------------|
|-7\---------|-------------|-----------------|---------------|
|-7\-------9-|-(9)------0--|-7-7---(7)s6s5---|----------7\---|
|-7\-------7-|-(7)------0--|-7-7---(7)s6s5-7-|-(7)------5\---|
|-5\-------0-|-(0)------0--|-5-5---(5)-----0-|-(0)-----------|
|------------|-------------|-----------------|---------------|
|
|-2----------|-------------|-2-2-----------0-|-(0)-----------|
|-3----------|-------------|-3-3-----------1-|-(1)-----------|
|-2----------|-------------|-2-2-----------2-|-(2)-----------|
|-0----------|-------------|-0-0-----------2-|-(2)-----------|
|----------0-|-(0)---------|---------------0-|-(0)-----------|
|------------|-------------|-----------------|----------0--3-|


 Chorus
  F        G    Am             G5   F5
|-----------------|-------------------|
|-----------------|------------10s8-8s|
|-5--------7------|--9-----(9)--x---x-|
|-3--------5------|--7-----(7)--7s5-5s|
|------0--------0-|-------------------|
|-----------------|-------------------|
|
|-1----1-x-3----5-|-(5)---------------|
|-1----1-x-3----5-|-(5)---------------|
|-2----2-x-4----5-|-(5)---------------|
|-3----3-x-5----7-|-(7)---------------|
|-3----3-x-5--5-7-|-(7)---------5-5-3-|
|-1--0-1-x-3--3-5-|-(5)-----0---3-3-1-|


     F     G    Am                   G5   F5
|-----------------|---------------------------|
|-6--------8------|------------------10s8-8s==|
|----------x------|--9-----------(9)--x---x---|
|-3--------5------|--7-----------(7)--7s5-5s==|
|----0--------0---|---------------------------|
|-----------------|---------------------------|
|
|----1-1-x-3--3-5-|-(5)--(5)-x-x--------------|
|----1-1-x-3--3-5-|-(5)--(5)-x-x--------------|
|----2-2-x-4--4-5-|-(5)--(5)-x-x--------------|
|----3-3-x-5--5-7-|-(7)--(7)-x-x--------------|
|-3--3-3-x-5--5-7-|-(7)--(7)-x-x------5-5-3---|
|-1--1-1-x-3--3-5-|-(5)--(5)-x-x--0---3-3-1---|


     F  G    Am                 G5   F5     F     G      Am
|--------------|-----------------------|-------------------|
|-6-----8--8---|-10-----------7-10s8-8s|=6----8---(8)------|
|-------x------|--x-----------x--x---x-|------x------------|
|-3-----5------|--7-----------5--7s5-5s|=3----5---(5)--0---|
|----0---------|-----------------------|----0----------0---|
|--------------|-----------------------|-------------------|
|
|----1--3--3-5-|-(5)--(5)-x-x----------|----1-1-x--3-------|
|----1--3--3-5-|-(5)--(5)-x-x----------|----1-1-x--3-----1-|
|----2--4--4-5-|-(5)--(5)-x-x----------|----2-2-x--4-----2-|
|----3--5--5-7-|-(7)--(7)-x-x----------|----3-3-x--5-----2-|
|-3--3--5--5-7-|-(7)--(7)-x-x----5-5-3-|-3--3-3-x--5---0---|
|-1--1--3--3-5-|-(5)--(5)-x-x-0--3-3-1-|-1--1-1-x--3-------|


                  G6      Am        G           Am        G6      A5      G
|-------------------|---------------3---|-------------------|-------------3---|
|-------------------|---------------3---|-------------------|-------------3---|
|-------------------|---------------0---|-------------------|-------------0---|
|-------------------|-------------------|-------------------|-----------------|
|-------3---7\----5-|-(5)-7-------------|--5--------7-----5-|-(5)-7-----------|
|--3--5---0-5\--0-3-|-(3)-5-5-0--0------|--3--5-5-0-5-5-5-3-|-(3)-5-5-0-0-----|
|
|-----------0-----0-|-(0)---------------|-----------------0-|-(0)-------------|
|-(1)---1---1-----0-|-(0)---1---(1)-0---|-(0)---1-------1-0-|-(0)---------0---|
|-(2)---2---2-----0-|-(0)---2---(2)-0---|-(0)---2-------2-0-|-(0)---------0---|
|-(2)---2---2-------|-----2-2---(2)-----|-------2-------2---|-----2-----------|
|-----0-------------|-------------------|-------------------|-----0-0---------|
|-------------------|-------------------|-------------------|-----------0-----|


 Guitar Solo
  A5       N.C.                          A5              N.C.
|----------------|---------------------|-----5----------------------|
|----------------|---------7p5---------|-----5-8p5------------------|
|----------------|-----5---7p5---5-7b9-|-(7)-------5-7p5-----/14-14-|
|----------------|-5h7---7-----7-------|-----------------0-0--------|
|-0------3h5-5s7-|---------------------|----------------------------|
|-0--3h5---------|---------------------|----------------------------|
|
|----------------|---------------------|----------------------------|
|----------------|---------------------|----------------------------|
|-2------2-------|---------------------|--2----------2--------------|
|-2------2-------|---------------------|--2----------2--------------|
|-0------0-------|---------------------|--0----------0--------------|
|----------------|---------------------|----------------------------|


       G              F
|--------------------------|
|---------------------17---|
|-(14)-0-16-0-17-0-19------|
|--------------------------|
|--------------------------|
|--------------------------|
|
|--------------------------|
|--------------------------|
|-----------4-------4------|
|------5----5-------5--3-3-|
|------5----5-------5--3-3-|
|------3----3-------3--1-1-|


                                    G                       Am           G       F
                                                   ~~~~~~~~~~~~~~
|---------------------------------------------------------|------------------------|
|-20b22-(20)--20b22-(20)-----20b22==(20)r(20)-17----------|------------------------|
|-------------------------------------------------19b21---|-(19)----(19)-(19)\-0-0-|
|---------------------------------------------------------|--------------------0---|
|---------------------------------------------------------|------------------------|
|---------------------------------------------------------|------------------------|
|
|---------------------------------------------------------|------------------------|
|---------1----------(1)--------------3-------(3)---------|---5--------------------|
|---------2----------(2)--------------4-------(4)---------|---5------------4---4-2-|
|---------3----------(3)-3-3----------5-------(5)--5----5-|---7------------5---5-3-|
|---------3----------(3)-3-3----------5-------(5)--5----5-|---7------------5---5-3-|
|---------1----------(1)-1-1----------3-------(3)--3----3-|---5-------0----3---3-1-|


                  G             Am               G   F
|-----5-----------------------|------------------------|
|--------8p=5-----------------|--------------------0---|
|-7b9---------5---7p5--7--5---|-(5)----------------0---|
|-----------------------------|-----7b9r=(7)-(7)-4-----|
|-----------------------------|------------------------|
|-----------------------------|------------------------|
|
|-----------------------------|------------------------|
|-1-----(1)-------3---(3)-----|--5-----------(5)-------|
|-2-----(2)-------4---(4)-----|--5-----------(5)-4-4-2-|
|-3-----(3)---3-3-5---(5)-5-5-|--7-----------(7)-5-5-3-|
|-3-----(3)---3-3-5---(5)-5-5-|--7-----------(7)-5-5-3-|
|-1-----(1)---1-1-3---(3)-3-3-|--5-----------(5)-3-3-1-|


                      G                    Am                   G   F
          ~~~~
|----------------------------------------|------------------------0----|
|-20b22-(20)----------20-17-20p=17----17-|-17---------------------0-0--|
|----------------------------------19----|----19b21-(19)s6s=14/--------|
|----------------------------------------|-----------------------------|
|----------------------------------------|-----------------------------|
|----------------------------------------|-----------------------------|
|
|----------------------------------------|-----------------------------|
|---------1---(1)------3----(3)----------|--5---------------(5)--------|
|---------2---(2)------4----(4)----------|--5---------------(5)-4-4-2--|
|---------3---(3)-3-3--5----(5)-----5--5-|--7---------------(7)-5-5-3--|
|---------3---(3)-3-3--5----(5)-----5--5-|--7---------------(7)-5-5-3--|
|---------1---(1)-1-1--3----(3)-----3--3-|--5---------------(5)-3-3-1--|


                                             G
|-20p17--------------------------------------------|
|-------17-17-20p17----17-20p17-----------------17-|
|-------------------19----------19-17-19p=17-------|
|--------------------------------------------19----|
|--------------------------------------------------|
|--------------------------------------------------|
|
|--------------------------------------------------|
|--1----------------------------------(1)----!3----|
|--2----------------------------------(2)----!4----|
|--3----------------------------------(3)----!5----|
|--3----------------------------------(3)----!5----|
|--1----------------------------------(1)----!3----|


                                               A5
|---------------------------------------0---------|
|--20p=17-20p17----------(17)-----------0---17h20-|
|---------------19p17-19p=17------------0---------|
|------------------------------19s=14-------------|
|-------------------------------------------------|
|-------------------------------------------------|
|
|-------------------------------------------------|
|-!(3)------------------------!(3)----------------|
|-!(4)------------------------!(4)--4-4-4-0-----2-|
|-!(5)------------------------!(5)--5-5-5-0-----2-|
|-!(5)------------------------!(5)----------------|
|-!(3)------------------------!(3)----------------|


                                 Bm C
                    ~~~~~~~~~~~~~~~~~~~
|-------------------------------------|
|-20b23==(20)r(20)-20b23-(20)---------|
|-------------------------------------|
|-------------------------------------|
|-------------------------------------|
|-------------------------------------|
|
|                              PM
|--------^-0---------------0----------|
|--------^-1---------------1-----3--5-|
|--------^-2---------------2-----4--5-|
|--------^-2---------------------4--5-|
|--------^-0-------------------0------|
|-------------------------------------|


                     Bm                       Am
 ~~~~~~
|---------------------------------------------------|
|-(20)-20b23-(20)-20-19-17h19p=17----------------17-|
|---------------------------------19-17-19p17-------|
|---------------------------------------------19----|
|---------------------------------------------------|
|---------------------------------------------------|
|
|              PM-|                PM---|
|---------------------------------------------^0----|
|--(5)----------------3----(3)----------------^1----|
|--(5)----------------4----(4)----------------^2----|
|--(5)----------------4----(4)----------------^2----|
|--------------0---0---------------0-----0----^0----|
|---------------------------------------------------|


                    Bm       C             Bm          Am
|--------------------------------|------------------------|
|-------------------0------------|------------------------|
|--17---------------0-7-7b9==(7)-|-(7)r============(7)--0-|
|------19-----(19)\--------------|----------------------0-|
|--------------------------------|------------------------|
|--------------------------------|------------------------|
|
|           PM|                        PM|
|-^(0)---------------------------|---------------------^0-|
|-^(1)----1---------3---------5--|-(5)-----3-(3)-------^1-|
|-^(2)----2---------4---------5--|-(5)-----4-(4)-4--4--^2-|
|-^(2)----2---------4---------5--|-(5)-----4-(4)-4--4--^2-|
|-^(0)------0---0----------------|-----0-0-------------^0-|
|--------------------------------|------------------------|


 Verse
              Bm C           Bm          Am
|------------------|-------------------0----|
|--------1----3--5-|-(5)---x-3-(3)---3------|
|--------2----4--5-|-(5)---x-4-(4)----------|
|-0h=2-----------5-|-(5)---x-4-(4)--------0-|
|-0-(0)------------|---------------0--------|
|------------------|------------------------|
|
|           PM           PM|       PM|
|---^0---0---------|---------------------^0-|
|---^1---1----3--5-|-(5)-----3-(3)-------^1-|
|---^2---2----4--5-|-(5)-----4-(4)-------^2-|
|---^2--------4--5-|-(5)-----4-(4)-------^2-|
|---^0------0------|-----0-0-------0-0---^0-|
|------------------|------------------------|


              Bm  C           Bm        Am
|-------------------|-------------------------|
|-------------3---5-|-(5)-----3-(3)-----------|
|-------2---x-4---5-|-(5)-----4-(4)-----------|
|-------2---x-4-4-5-|-(5)---5-4-(4)-4-4--2-2--|
|---0---0-----------|---------------0-0--0-0--|
|-------------------|-------------------------|
|
|         PM|             PM|
|-^(0)--------------|-------------------^0----|
|-^(1)--1-----3---5-|-(5)-----3-(3)-----^1----|
|-^(2)--2-----4---5-|-(5)-----4-(4)-4-4-^2----|
|-^(2)--2-----4---5-|-(5)-----4-(4)-4-4-^2----|
|-^(0)----0-0-------|-----0-0-----------^0----|
|-------------------|-------------------------|

[ Tab from: http://www.guitartabs.cc/tabs/r/reo_speedwagon/riding_the_storm_out_complete_tab.html ]
              Bm C           Bm        Am
|------------------|----------------------|
|-------1-----3--5-|-(5)------------------|
|-------2-----4--5-|-(5)-----0h=4----4--0-|
|---2------------5-|-(5)-----------0-4--0-|
|---0-------0------|----------------------|
|------------------|----------------------|
|
|         PM|
|-^(0)-------------|-------------------^0-|
|-^(1)--1-----3--5-|-(5)-5-5-3-(3)-3-3-^1-|
|-^(2)--2-----4--5-|-(5)-5-5-4-(4)-4-4-^2-|
|-^(2)--2-----4--5-|-(5)-5-5-4-(4)-4-4-^2-|
|-^(0)----0-0------|-------------------^0-|
|------------------|----------------------|


                                  Bm             C             Bm           Am
|--20p=17-17-17-20p17-17-17-20p17----17-17-20b22---|-(20)---17-----------------|
|---------------------------------20---------------|-----------20-17-----------|
|--------------------------------------------------|------------------19-17----|
|--------------------------------------------------|------------------------19-|
|--------------------------------------------------|---------------------------|
|--------------------------------------------------|---------------------------|
|
|                            PM
|-^(0)-----------0---------------------------------|---------------------------|
|-^(1)-----------1-----------------3-------------5-|--(5)-5--x--3-(3)--3--3--1-|
|-^(2)-----------2-----------------4-------------5-|--(5)-5--x--4-(4)--4--4--2-|
|-^(2)-----------------------------4-------------5-|--(5)-5--x--4-(4)--4--4--2-|
|-^(0)-----------------------0---------------------|---------------------------|
|--------------------------------------------------|---------------------------|


                Bm C            Bm                     Am
      ~~~~~~~
|--------------------|---------------------------------------|
|-17-----------------|--------0-20b23-(20)-20b22-20b22-20b22-|
|--------------------|--------0------------------------------|
|----19-(19)---------|-(19)---0------------------------------|
|--------------------|---------------------------------------|
|--------------------|---------------------------------------|
|
|             PM            PM|             PM---|
|-^0------0----------|---------------------------------^0----|
|-^1------1-----3--5-|--(5)------3-----(3)-------------^1----|
|-^2------2-----4--5-|--(5)------4-----(4)-------------^2----|
|-^2------------4--5-|--(5)------4-----(4)-------------^2----|
|-^0----------0------|------0-0-------------0-----0----^0----|
|--------------------|---------------------------------------|


                               Bm  C               Bm            Am
                        ~~~~
|------------------------------------|-------------5----------------|
|-20b24==(20)-(20)b22-(20)-----------|-------------5----------------|
|------------------------------------|-----7b9-(7)----7p=5----------|
|--------------------------------0---|--0------------------7-7p5----|
|------------------------------------|-----------------------0----0-|
|------------------------------------|------------------------------|
|
|                          PM|             PM--|
|--------^(0)------------------------|---------------------------^0-|
|--------^(1)-----------1------3---5-|-(5)---------3-(3)---------^1-|
|--------^(2)-----------2------4---5-|-(5)---------4-(4)---4-4---^2-|
|--------^(2)-----------2------4---5-|-(5)---------4-(4)---4-4---^2-|
|--------^(0)--------------0-0-------|-----0----0----------------^0-|
|------------------------------------|------------------------------|


              Bm C   C/G     Bm/F#     Am
|------------------|---------0-(0)-------|
|------------------|---------3-(3)-------|
|-------2--------5-|-(5)---0-4-(4)---0---|
|-------2--------5-|-(5)---0---------0---|
|---0---------0----|---------------------|
|------------------|---------------------|
|
|         PM|
|-^(0)-------------|---------------------|
|-^(1)--1-----3--5-|--5--5-5-3-(3)-3-3-1-|
|-^(2)--2-----4--5-|--5--5-5-4-(4)-4-4-2-|
|-^(2)--2-----4--5-|--5--5-5-4-(4)-4-4-2-|
|-^(0)----0-0------|-------------------0-|
|------------------|---------------------|


  PM----|
|-----------------|----------|
|-----------------|----------|
|-----------------|----------|
|-----7-7-7-7-7-7-|-7--------|
|-0-0-0-0-0-0-0-0-|-0--------|
|-----------------|----------|
|
|-----------------|----------|
|-1-1-1-1-1-1-1-1-|-1--------|
|-2-2-2-2-2-2-2-2-|-2--------|
|-2-2-2-2-2-2-2-2-|-2--------|
|-0-0-0-0-0-0-0-0-|-0--------|
|-----------------|----------|


 Pre-Chorus
  D   N.C.                       D               Am
|---------------|--------------|-------------------|-----------------|
|---------------|--------------|-------------------|-----------------|
|-7\------------|--------------|-7-7---(7)-(7)\--2-|-(2)------0-5-5--|
|-7\-------7-|-(7)------7\--|-7-7---(7)-(7)\--2-|-(2)------0-3-3--|
|-5\----------0-|-(0)----------|-5-5---(5)-(5)\--0-|-(0)-------------|
|---------------|--------------|-------------------|-----------------|
|
|-2-------------|--------------|-2-2-------------0-|-(0)-------------|
|-3-------------|--------------|-3-3-------------1-|-(1)-------------|
|-2-------------|--------------|-2-2-------------2-|-(2)-------------|
|-0-------------|--------------|-0-0-------------2-|-(2)-------------|
|-------------0-|-(0)----------|-----------------0-|-(0)-------------|
|---------------|--------------|-------------------|----------0---3--|


 Chorus
  F        G    Am               G5   F5
|---------------------|-----------------|
|---------------10-10-|-10-------10s8-8s|
|-5----7-7-7-----x--x-|--x--------x---x-|
|-3----5-5-5-----7--7-|--7-----0--7s5-5s|
|----0--------0-------|-----------------|
|---------------------|-----------------|
|
|-1----1-x-3-----5----|-(5)-------------|
|-1----1-x-3-----5----|-(5)-------------|
|-2----2-x-4-----5----|-(5)-------------|
|-3----3-x-5-----7----|-(7)-------------|
|-3----3-x-5--5--7----|-(7)-------5-5-3-|
|-1--0-1-x-3--3--5----|-(5)----0--3-3-1-|


     F     G       Am                     G5   F5
|------------------------|------------------------|
|-6----------8-8---10-10-|-10-------------10s8-8s=|
|------------x-x----x--x-|--x--------------x---x--|
|-3----------5-5-0--7--7-|--7-----------x--7s5-5s=|
|----------------0-------|------------------------|
|----------0-------------|------------------------|
|
|----1-1-x-3-----3--5----|-(5)--(5)-x-x-----------|
|----1-1-x-3-----3--5----|-(5)--(5)-x-x-----------|
|----2-2-x-4-----4--5----|-(5)--(5)-x-x-----------|
|----3-3-x-5-----5--7----|-(7)--(7)-x-x-----------|
|-3--3-3-x-5-----5--7----|-(7)--(7)-x-x----5-5-3--|
|-1--1-1-x-3-----3--5----|-(5)--(5)-x-x-0--3-3-1--|


                                              Half-time Feel
     F  G       Am                     G5  F5  F           G        F5
|-------------------|------------------------|-----------|--------------|
|-6-------8-8-------|------------------------|-1---------|-3------------|
|---------x-x-----9-|--9-----------(9)-4-4-2-|-2---------|-4------------|
|-3-------5-5-----7-|--7-----------(7)-5-5-3-|-3---------|-5------------|
|-------------0-----|--0-----------(0)-------|-3---------|-5------5s8---|
|-------0-----------|------------------------|-1------0--|-3------------|
|
|----1--3-----3-5---|-(5)--(5)-x-x-----------|-1---------|-3------------|
|----1--3-----3-5---|-(5)--(5)-x-x-----------|-1---------|-3------------|
|----2--4-----4-5---|-(5)--(5)-x-x-----------|-2---------|-4------------|
|----3--5-----5-7---|-(7)--(7)-x-x-----------|-3---------|-5--------3-3-|
|-3--3--5-----5-7---|-(7)--(7)-x-x-----5-5-3-|-3---------|-5--------3-3-|
|-1--1--3-----3-5---|-(5)--(5)-x-x--0--3-3-1-|-1---------|-3------0-1-1-|


  F          F5     G             F5    F                   G
|-----------------|-------------------|-------------------|-------------------|
|-----------------|-------------------|-------------------|-------------------|
|-----------------|-12---------0------|-10---14-(14)--12--|-12----14-(14)-----|
|-10------10s12---|-12--12-----0------|-10----x--------x--|--x--0--x----------|
|--8-------8s10---|-10--10-----0------|--8---12-(12)--10--|-10----12-(12)-----|
|-----------------|-------------------|-------------------|----------------0--|
|
|--1-------1------|--3--------(3)-----|--1-------------1--|--3-------------3--|
|--1-------1------|--3--------(3)-----|--1-------------1--|--3-------------3--|
|--2-------2------|--4--------(4)-----|--2-------------2--|--4-------------4--|
|--3-------3--3-3-|--5--------(5)-3-3-|--3-------------3--|--5-------------5--|
|--3-------3--3-3-|--5--------(5)-3-3-|--3-------------3--|--5-------------5--|
|--1-------1--1-1-|--3--------(3)-1-1-|--1-------------1--|--3-------------3--|


 End Half-time Feel
    A5                                                                   Am
  PM------------------|
|-----------------|-----------------|-----------------|-----------------------|
|-----------------|-----------------|-----------------|-------------8\--------|
|-----9-9-9-9-9-9-|-9-9-9-9-9-9-9-9-|-9---------------|-------------7\--------|
|-----7-7-7-7-7-7-|-7-7-7-7-7-7-7-7-|-7---------------|-------------5\--------|
|-0-0-0-0-0-0-0-0-|-0-0-0-0-0-0-0-0-|-0---0-----------|-(0)-----(0)-----------|
|-----------------|-----------------|-----------------|-----------------------|
|
|-----------------|-----------------|-----------------|-----------------------|
|-----------------|-----------------|-----------------|------------------1-1--|
|---2-2-2-2-2-2-2-|-2-2-2-2-2-2-2-2-|-2-2-2-2-2-2-2-2-|--2---2---2-----2-2-2--|
|---2-2-2-2-2-2-2-|-2-2-2-2-2-2-2-2-|-2-2-2-2-2-2-2-2-|--2---2---2-----2-2-2--|
|---0-0-0-0-0-0-0-|-0-0-0-0-0-0-0-0-|-0-0-0-0-0-0-0-0-|--0---0---0-----0-0-0--|
|-----------------|-----------------|-----------------|-----------------------|


 Guitar Solo
           Bm  C             Bm            Am
|----------------|----------------------------|
|--5-------------|-----0---------------5------|
|--5---------5---|-(5)-0-7p5---5--7p=5-5------|
|------------5---|-(5)-------7-----------5--0-|
|----------------|-----------------------0--0-|
|----------------|----------------------------|
|
|        PM            PM|             PM|
|-^0--0----------|-------------------------^0-|
|-^1--1----3---5-|-(5)-------3---(3)-------^1-|
|-^2--2----4---5-|-(5)-------4---(4)-------^2-|
|-^2-------4---5-|-(5)-------4---(4)-------^2-|
|-^0-----0-------|-----0-0-------------0-0-^0-|
|----------------|----------------------------|


               Bm  C           Bm        Am
|--------------------|-----------------------|
|----------------5h7-|--7h=8-8p7--7h=8-8s10--|
|------------5h7-----|-----------------------|
|--------5h7---------|-----------------------|
|---5h=7-------------|-----------------------|
|--------------------|-----------------------|
|
|          PM|             PM|
|-^(0)---------------|-------------------^0--|
|-^(1)---1-----3---5-|-(5)-----3-(3)-----^1--|
|-^(2)---2-----4---5-|-(5)-----4-(4)-4-4-^2--|
|-^(2)---2-----4---5-|-(5)-----4-(4)-4-4-^2--|
|-^(0)-----0-0-------|-----0-0-----------^0--|
|--------------------|-----------------------|


                 Bm    C                      Bm           Am
|-------------------------|-----------------------------------|
|--10p=8-8h10-10s12-12s13-|-12b13==(12)r12-12h13-13s=15-15s17-|
|-------------------------|-----------------------------------|
|-------------------------|-----------------------------------|
|-------------------------|-----------------------------------|
|-------------------------|-----------------------------------|
|
|           PM|
|-^(0)--------------------|--------------------------------^0-|
|-^(1)---1--------3-----5-|---------(5)--5--5--3-(3)--3--3-^1-|
|-^(2)---2--------4-----5-|---------(5)--5--5--4-(4)--4--4-^2-|
|-^(2)---2--------4-----5-|---------(5)--5--5--4-(4)--4--4-^2-|
|-^(0)------0--0----------|--------------------------------^0-|
|-------------------------|-----------------------------------|


                   Bm    C              Bm           Am
        ~~
|---------------------------|------------------------0--|
|--17p=15-15h17-17s19-19s20-|-20p=19-19h20-20h=22S12-0--|
|---------------------------|---------------------------|
|---------------------------|---------------------------|
|---------------------------|---------------------------|
|---------------------------|---------------------------|
|
|                PM
|-^(0)-----0----------------|---------------------------|
|-^(1)-----1--------3-----5-|-(5)--5--x--3-(3)--3--3-1--|
|-^(2)-----2--------4-----5-|-(5)--5--x--4-(4)--4--4-2--|
|-^(2)--------------4-----5-|-(5)--5--x--4-(4)--4--4-2--|
|-^(0)-----------0----------|---------------------------|
|---------------------------|---------------------------|


                       Bm       C                       Bm                 Am
|-------17-17-------17-17-17----17-|--------17-------17-------17--------17----|
|-17-19-17-17-17-19----17----19----|-17h=19----17h19----17h19-----17-19----17-|
|----------------------------------|------------------------------------------|
|----------------------------------|------------------------------------------|
|----------------------------------|------------------------------------------|
|----------------------------------|------------------------------------------|
|
|                    PM                      PM---|                PM|
|-^0--------0----------------------|---------------------------------------^0-|
|-^1--------1-----------3--------5-|-(5)-----------------3----(3)----------^1-|
|-^2--------2-----------4--------5-|-(5)-----------------4----(4)----------^2-|
|-^2--------------------4--------5-|-(5)-----------------4----(4)----------^2-|
|-^0-----------------0-------------|---------0-----0---------------0--0----^0-|
|----------------------------------|------------------------------------------|


                                  Bm    C
                                         ~~~~~~
|--21p=17----17-17-21p17-17-17-21----17-20b22-|
|---------19----------------------19----------|
|---------------------------------------------|
|---------------------------------------------|
|---------------------------------------------|
|---------------------------------------------|
|
|                         PM---|
|-^(0)----------------------------------------|
|-^(1)--------------1--------------3-----5----|
|-^(2)--------------2--------------4-----5----|
|-^(2)--------------2--------------4-----5----|
|-^(0)--------------------0-----0-------------|
|---------------------------------------------|


                   Bm                 Am
 ~~~~~~
|-(20)-20p17-20p17----17-20p=17----17----|
|------------------20-----------17-17-17-|
|----------------------------------------|
|----------------------------------------|
|----------------------------------------|
|----------------------------------------|
|
|       PM---|
|-------------------------------------^0-|
|--(5)--------------3----(3)----------^1-|
|--(5)--------------4----(4)-----4--4-^2-|
|--(5)--------------4----(4)-----4--4-^2-|
|-------0-----0-----------------------^0-|
|----------------------------------------|


                                          Bm            C
|------------17-17------------17-17------------17------------|
|-20b22-(20)-------20b22-(20)-------20b22-(20)----20b22-(20)-|
|------------------------------------------------------------|
|------------------------------------------------------------|
|------------------------------------------------------------|
|------------------------------------------------------------|
|
|                              PM|
|-------^(0)-------------------------------------------------|
|-------^(1)---------------1----------------3-------------5--|
|-------^(2)---------------2----------------4-------------5--|
|-------^(2)---------------2----------------4-------------5--|
|-------^(0)-------------------0--0--------------------------|
|------------------------------------------------------------|


                             Bm                        Am
|-17--17------------17------------17-------------17-17-17--|
|--------20b22-(20)----20b22-(20)-----20b22-(20)-----------|
|----------------------------------------------------------|
|----------------------------------------------------------|
|----------------------------------------------------------|
|----------------------------------------------------------|
|
|------------------------------------------------------^0--|
|-(5)------------5---5---------3--(3)---------3---3----^1--|
|-(5)------------5---5---------4--(4)---------4---4----^2--|
|-(5)------------5---5---------4--(4)---------4---4----^2--|
|------------------------------------------------------^0--|
|----------------------------------------------------------|


                                Bm          C                     Bm        Am
|-20b22-(20)--20p17-20p17h20p17-------------------|---------------------------|
|-------------------------------20p17-20p17-------|-----------------------0---|
|-------------------------------------------19p17-|-19p=17----19\-------0-0-0-|
|-------------------------------------------------|--------19-----0-----0-----|
|-------------------------------------------------|---------------0-----------|
|-------------------------------------------------|------------------0--------|
|
|                          PM
|-------^(0)---0----------------------------------|---------------------------|
|-------^(1)---1-----------------3-----------5----|-(5)-----5--x--3-(3)-3-3-1-|
|-------^(2)---2-----------------4-----------5----|-(5)-----5--x--4-(4)-4-4-2-|
|-------^(2)---------------------4-----------5----|-(5)-----5--x--4-(4)-4-4-2-|
|-------^(0)---------------0----------------------|---------------------------|
|-------------------------------------------------|---------------------------|


                                     Bm           C
|-20b22-(20)--------------20b22-(20)---20b22-(20)---|
|-------------20b22-(20)----------------------------|
|---------------------------------------------------|
|---------------------------------------------------|
|---------------------------------------------------|
|---------------------------------------------------|
|
|                                 PM
|-------^-0-----------0-----------------------------|
|-------^-1-----------1--------------3------------5-|
|-------^-2-----------2--------------4------------5-|
|-------^-2--------------------------4------------5-|
|-------^-0-----------------------0-----------------|
|---------------------------------------------------|


                  Bm                       Am
          ~~~~
|-20b22-(20)---20-17-20--17----17---------------|
|---------------------------20------20b23==(20)-|
|---------------------------------0-------------|
|-----------------------------------------------|
|-----------------------------------------------|
|-----------------------------------------------|
|
|            PM|             PM---|
|------------------------------------------^-0--|
|--------(5)-------3-(3)-------------------^-1--|
|--------(5)-------4-(4)-------------------^-2--|
|--------(5)-------4-(4)-------------------^-2--|
|------------0--0------------0----0--------^-0--|
|-----------------------------------------------|


                             Bm       C
|-------------------------------------------|
|-(20)r(20)b22-(20)-20-17h20-17-------------|
|-------------------------------19p17-19p17h|
|-------------------------------------------|
|-------------------------------------------|
|-------------------------------------------|
|
|                    PM|
|-^(0)--------------------------------------|
|-^(1)-----------1------------3--------5----|
|-^(2)-----------2------------4--------5----|
|-^(2)-----------2------------4--------5----|
|-^(0)---------------0--0-------------------|
|-------------------------------------------|


              Bm                  Am
|------------------------------------|
|------------------------------------|
|-19p=17------------------------0----|
|--------19------------17-17-19-0----|
|---------------17h=19---------------|
|-----------0------------------------|
|
|         PM|
|---------------------------------^0-|
|-(5)---------3-(3)---------------^1-|
|-(5)---------4-(4)-----4-----4---^2-|
|-(5)---------4-(4)-----4-----4---^2-|
|---------0-0---------------------^0-|
|------------------------------------|


                              Bm            C
|----------------------------------------------|
|-----------------------------17------------17-|
|---------------17-19b21-(19)----19b21-(19)----|
|---------17-19--------------------------------|
|-17h=19---------------------------------------|
|----------------------------------------------|
|
|                PM------|
|----^(0)--------------------------------------|
|----^(1)-----1----------------3-------------5-|
|----^(2)-----2----------------4-------------5-|
|----^(2)-----2----------------4-------------5-|
|----^(0)--------0---------0-------------------|
|----------------------------------------------|


                           Bm                                      Am
|------------------------------------------------------------------------|
|------------17------------17-17------------17-17-17------------17-17-17-|
|-19b21-(19)----19b21-(19)-------19b21-(19)----------19b21-(19)----------|
|------------------------------------------------------------------------|
|------------------------------------------------------------------------|
|------------------------------------------------------------------------|
|
|------------------------------------------------------------------^0----|
|--------(5)--5---------5---3-----------(3)-----3------------3-----^1----|
|--------(5)--5---------5---4-----------(4)-----4------------4-----^2----|
|--------(5)--5---------5---4-----------(4)-----4------------4-----^2----|
|------------------------------------------------------------------^0----|
|------------------------------------------------------------------------|


                               Bm          C               Bm             Am
|--21p=17-17-19p17-17-17-19p17-0-(0)-22b24-(22)-|-(22)----------------------|
|---------17-------------------0-(0)------------|---------------------------|
|-----------------------------------------------|-----------------------0---|
|-----------------------------------------------|-----------------------0---|
|-----------------------------------------------|---------------------------|
|-----------------------------------------------|----------17-(17)\---0-----|
|
|                         PM
|-^(0)--------0---------------------------------|---------------------------|
|-^(1)--------1----------------3-------------5--|--(5)-5-x--3--(3)--3---3-1-|
|-^(2)--------2----------------4-------------5--|--(5)-5-x--4--(4)--4---4-2-|
|-^(2)-------------------------4-------------5--|--(5)-5-x--4--(4)--4---4-2-|
|-^(0)--------------------0---------------------|---------------------------|
|-----------------------------------------------|---------------------------|


               Bm  C           Bm        Am
             PM  PM
|--------------------|---------0-(0)--------|
|--------------3---5-|-(5)-----3-(3)--------|
|--------2p0---4---5-|-(5)p==0-4-(4)--------|
|-0h=2---------4---5-|-(5)p==0--------------|
|-0-(0)------0---0---|-----------------5p=0-|
|--------------------|----------------------|
|
|            PM            PM|       PM|
|---^0---0-----------|-------------------^0-|
|---^1---1-----3---5-|-(5)-----3-(3)-----^1-|
|---^2---2-----4---5-|-(5)-----4-(4)-----^2-|
|---^2---------4---5-|-(5)-----4-(4)-----^2-|
|---^0-------0-------|-----0-0-------0-0-^0-|
|--------------------|----------------------|


              Bm  C           Bm                   Am
          PM|   PM             PM----------------|
|-------------------|-----------------------------------|
|-------1-----3---5-|-(5)-------------------------------|
|-------2-----4---5-|-(5)-------------------------------|
|-------2-----4---5-|-(5)---0---------------------------|
|---0-----0-0---0---|---------12-12-12--10-9-8-7-5--3p0-|
|-------------------|-----------------------------------|
|
|         PM|             PM|
|-^(0)--------------|------------------------------^0---|
|-^(1)--1-----3---5-|-(5)------3----(3)------------^1---|
|-^(2)--2-----4---5-|-(5)------4----(4)----4---4---^2---|
|-^(2)--2-----4---5-|-(5)------4----(4)----4---4---^2---|
|-^(0)----0-0-------|-----0-0----------------------^0---|
|-------------------|-----------------------------------|


             Bm  C           Bm        Am
|------------------|----------------------|
|------1-----3-----|---------3-(3)--------|
|------2-----4---5-|-(5)---0-4-(4)--------|
|--0h2-2-----4---5-|-(5)---0-4-(4)---0----|
|--0-------0---0---|-----------------0----|
|------------------|----------------------|
|
|        PM|
|-^0---------------|-------------------^0-|
|-^1---1-----3---5-|-(5)-5-5-3-(3)-3-3-^1-|
|-^2---2-----4---5-|-(5)-5-5-4-(4)-4-4-^2-|
|-^2---2-----4---5-|-(5)-5-5-4-(4)-4-4-^2-|
|-^0-----0-0-------|-------------------^0-|
|------------------|----------------------|


             Bm  C           Bm        Am
|-------0----------|---------------------|
|-------1----3-----|---------3-(3)-------|
|-------2----4---5-|-(5)-----4-(4)-------|
|---2--------4---5-|-(5)---0-4-(4)-------|
|---0------0---0---|---------------0-----|
|------------------|-----------------0-1-|
|
|          PM
|-^(0)--0----------|---------------------|
|-^(1)--1----3---5-|-(5)-5-x-3-(3)-3-3-1-|
|-^(2)--2----4---5-|-(5)-5-x-4-(4)-4-4-2-|
|-^(2)-------4---5-|-(5)-5-x-4-(4)-4-4-2-|
|-^(0)-----0-------|---------------------|
|------------------|---------------------|


 Outro
  F                              G
|-----------------|-----------------|---3-----:
|-1---------(1)---|-----------------|---3-----:
|-2---------(2)---|---------------2-|---4-----:
|-3---------(3)---|--------3--------|---5-----:
|-3---------(3)---|-3----3-3--------|---5-----:
|-1---------(1)-1-|-1--1-------0----|---3-----:
|
|-----------------|--------------!3-|-!(3)----:
|-1---------------|--------------!3-|-!(3)----:
|-2------2--------|-2------2-2-2-!4-|-!(4)----:
|-3------3--------|-3------3-3-3-!5-|-!(5)----:
|-3------3--------|-3------------!5-|-!(5)----:
|-1--1-1-----1--1-|----1-1-------!3-|-!(3)----:


|--(3)--------:--(3)------(3)--:--(3)--------:
|--(3)--------:--(3)------(3)--:--(3)--------:
|--(4)--------:--(4)------(4)--:--(4)--------:
|--(5)--------:--(5)------(5)--:--(5)--------:
|--(5)--------:--(5)------(5)--:--(5)--------:
|--(3)--------:--(3)------(3)--:--(3)--------:
|
|-!(3)--------:-!(3)-----------:-!(3)--------:
|-!(3)--------:-!(3)-----------:-!(3)--------:
|-!(4)--------:-!(4)-----------:-!(4)--------:
|-!(5)--------:-!(5)-----------:-!(5)--------:
|-!(5)--------:-!(5)-----------:-!(5)--------:
|-!(3)--------:-!(3)-----------:-!(3)--------:


  Am
                TP                     TP  TP   TP
|------------------:------------:-8---10-(10)--12--:-------10b12-(10)----:
|---------------7--:-(7)--------:-x----x--------x--:-0--0----------------:
|-2-4p2---(2)---x--:------------:-5----7--(7)---9--:----0----------------:
|-2-------------4--:-(4)--------:------------------:---------------------:
|-0-----------0----:------------:------------------:---------------------:
|------------------:------------:------------------:---------------------:
|
|       TP TP         TP          TP                 TP
|-0-----0--0-------:--0---------:-0----------------:-0-------------------:
|-1-----1--1-------:--1---------:-1----------------:-1-------------------:
|-2-----2--2-------:--2---------:-2----------------:-2-------------------:
|-2-----2--2-------:--2---------:-2----------------:-2-------------------:
|-0-----0--0-------:--0---------:-0----------------:-0-------------------:
|------------------:------------:------------------:---------------------:


|-(10)p=0------0-0--:-20b22-(20)-20b22-(20)-20b22-(20)-----------17-:
|--------------0-0--:----------------------------------0-(0)--17--x-:
|----------/19------:----------------------------------0-(0)---x-14-:
|-------------------:----------------------------------0-(0)--14----:
|-------------------:-----------------------------------------------:
|-------------------:-----------------------------------------------:
|
|   TP                        TP
|---0---------------:---------0-------------------------------------:
|---1---------------:---------1-------------------------------------:
|---2---------------:---------2-------------------------------------:
|---2---------------:---------2-------------------------------------:
|---0---------------:---------0-------------------------------------:
|-------------------:-----------------------------------------------:


|-(17)-17-17---17--(17)-17---:-17---------17-(17)----:
|---------------x------------:--x----------x---------:
|-(14)---------14--(14)-14---:-14-14-(14)-14-(14)----:
|------------0---------------:-----------------------:
|----------------------------:-----------------------:
|--------------------------0-:-----------------------:
|
|   TP                          TP
|---0------------------------:--0--------------------:
|---1------------------------:--1--------------------:
|---2------------------------:--2--------------------:
|---2------------------------:--2--------------------:
|---0------------------------:--0--------------------:
|----------------------------:-----------------------:


|----20b22-20-20b22==(20)r(20)-17-17-20-17-------:
|------------------------------------------20-17-:
|------------------------------------------------:
|------------------------------------------------:
|------------------------------------------------:
|------------------------------------------------:
|
| TP
|-0----------------------------------------------:
|-1----------------------------------------------:
|-2----------------------------------------------:
|-2----------------------------------------------:
|-0----------------------------------------------:
|------------------------------------------------:


                  ~~~~~~~~~~~~~~~
|-------------------------:---------------17h20p17-----:
|-------------------------:------------17----------17--:
|-19-17b17.5--------------:----------------------------:
|------------19-(19)------:-(19)----19-----------------:
|-------------------------:---------19-----------------:
|-------------------------:----------------------------:
|
|  TP                         TP
|--0----------------------:---0------------------------:
|--1----------------------:---1------------------------:
|--2----------------------:---2------------------------:
|--2----------------------:---2------------------------:
|--0----------------------:---0------------------------:
|-------------------------:----------------------------:


|-20p17----------20p17------------------------------:
|-------17h20-17-------17-20p17---20p17-------------:
|---------------------------------------17-19p17----:
|-------------------------------0----------------19-:
|---------------------------------------------------:
|---------------------------------------------------:
|
|--0------------------------------------------------:
|--1------------------------------------------------:
|--2------------------------------------------------:
|--2------------------------------------------------:
|--0------------------------------------------------:
|---------------------------------------------------:


            TP
|--------0--------:---------------------:------------*|
|--------0--------:---------------------:------------*|
|-19p17--0--------:---------------------:------------*|
|-----------7---7-:-(7)-----------------:------------*|
|-----------7---7-:-(7)-----------------:------------*|
|-----------5---5-:-(5)-----------------:-14s==0-----*|
|
|--0--------------:--0---(0)-0-(0)-0----:--0---------*|
|--1--------------:--1---(1)-1-(1)-1----:--1---------*|
|--2--------------:--2---(2)-2-(2)-2----:--2---------*|
|--2--------------:--2---(2)-2-(2)-2----:--2---------*|
|--0--------------:--0---(0)-0-(0)-0----:--0---------*|
|-----------------:---------------------:------------*|



Comments