Reo Speedwagon - Ridin The Storm Out Chords & Tabs

 

Ridin The Storm Out Chords & Tabs

Reo Speedwagon Chords & Tabs

Version: 1 Type: Tab 0 ratings
1 star 2 stars 3 stars 4 stars 5 stars
comments

Ridin The Storm Out Tab

Ridin The Storm Out-

Okay... this is how I play it, and it sounds pretty damn good to me,
so it's either this one or that chord version that's everywhere
else on the internet. You can choose. Good Luck!

P.S. This is arranged for one guitar... I don't know the lead (sorry)
Here it is... Ridin The Storm Out by REO SPEEDWAGON!

Intro/Verse:
E:--------------|--------------|--------------|--------------|
B:--------------|--------------|--------------|--------------|
G:--2--4--5--4--|--2--4--5--4--|--2--4--5--7--|--2--4--5--4--|
D:--2--4--5--4--|--2--4--5--4--|--2--4--5--7--|--2--4--5--4--|
A:--------------|--------------|--------------|--------------|
E:--------------|--------------|--------------|--------------|
[ Tab from: http://www.guitartabs.cc/tabs/r/reo_speedwagon/ridin_the_storm_out_tab.html ]
Chorus:
E:-----------------------------------------------------|
B:-----------------------------------------------------|
G:---2-----2--x--4------------2--x--2-----4-----4------|
D:---2-----2--x--4------------2--x--2-----4-----4------|
A:-----------------------------------------------------|
E:-----------------------------------------------------|
"And I'm... not missin' a thing..." 

E:-----------------------------------------------------|
B:-----------------------------------------------------|
G:-----------------------------------------------------|
D:-----3------5------7------5--------------------------| ==(Do this part 4x)
A:-----3------5------7------5--------------------------|
E:-----1------3------5------3--------------------------|
"Ridin' the storm out..." (Listen for the rhythm off the tape...)

That's all... -ab
Comments