Reo Speedwagon - Flying Turkey Trot Chords & Tabs

 

Flying Turkey Trot Chords & Tabs

Reo Speedwagon Chords & Tabs

Version: 1 Type: Tab 1 rating
1 star 2 stars 3 stars 4 stars 5 stars
comments

Flying Turkey Trot Tab

#-----------------------------------------------------------------------------#
#-- File created with Instab - http://www.pconline.com/~smcarey/instab.html --#
#-----------------------------------------------------------------------------#

Author/Artist: Reo Speedwagon
Title: Flying Turkey Trot
----------|-------------------------------------------------------------------
----------|----------------*--------------------------------------------------
----------|----------------3-----t--------------------------------------------
----------|-----5---3---5------3-3-3---5------------5--3--5-------------------
----------|-------------------------------------------------------------------
-12/3--x--|--3-----------------------------------3----------------------------
 i got so sick of not being able to find this song so i just figured it out   

------------------------------------------------------------------------------
--------------------------------------------------------*---------------------
--------------------------------------------------------3------t--------------
---5-5------5-5-----5-5------5-5-----x--------5--3--5--------3-3-3--5---------
---------2-------3--------4-------5--x----------------------------------------
-------------------------------------------3----------------------------------
   t=triplte     *=pick harmonic                                              
[ Tab from: http://www.guitartabs.cc/tabs/r/reo_speedwagon/flying_turkey_trot_tab.html ]
------------|-------------------------------------|---------------------------
------------|-------------------------------------|---------------------------
------------|-------------------------------------|---------------------------
----5--3--5-|--5-5-----5-5-----5-5---5-5------x---|---------------------------
------------|-------2-------3------4-------5--x---|---------------------------
-3----------|-------------------------------------|---------------------------
                                                                              

-----------------------------------------------------------------|-----x3--|--
-----------------------------------------------------------------|---------|--
-9-9---7--4------4-4----------------------------9-9---7---4---2--|-4-------|--
-9-9---7--4---2--4-4----------------------------9-9---7---4---2--|-4-------|--
-7-7---5--2---0--2-2---------2--------2--4------7-7---5---2---0--|-2-------|--
-----------------------3b4---0-----3-----------------------------|----3b4--|--
                                                                              

------------------------------------------------------------------------------
------------------------------------------------------------------------------
------------------------------------------------------------------------------
-2----------------------------------------------------------------------------
-2----------------------------------------------------------------------------
-0----------------------------------------------------------------------------
                                                                              

Comments