Rentals - Friends Of P Chords & Tabs

 

Friends Of P Chords & Tabs

Rentals Chords & Tabs

Version: 1 Type: Bass Tab 0 ratings
1 star 2 stars 3 stars 4 stars 5 stars
comments

Friends Of P Bass Tab

   
The Rentals
"Friends of P" bass tab

Tabbed by: Trent Kelly "The Sweaterdude", with some help from David
           Dineen Porter, who wrote the guitar part for this song.

This is just a really great song by an awesome band. Check out the CD
if you don't already have it. Really easy to play too. We need more
Rentals bass tabs! In fact, this is the only one I know of. Enjoy!

Drop D tuning. (E to D, or just play it on the D string)

Verse, comes in right away:

G|---------------------------------|
D|---------------------------------|
A|---------------------------------|
D|-0-0-0-0-0-0-0-0-5-5-5-5-5-5-5-5-|

        I'm a good guy for a girl...

Moog Part, Fill In comes in at about 18 seconds:
[ Tab from: http://www.guitartabs.cc/tabs/r/rentals/friends_of_p_btab.html ]
G|------------------------------|
D|------------------------------|
A|------------------------------|
D|-7--7--7--7--5-5-5-5--7-7-7-7-|

  Oh yeah, oh yeah...what's that you see?

Chorus, about 59 seconds in:

G|---------------------------------|
D|---------------------------------|
A|---------------------------------|
D|-0-0-0-0-0-0-5-5-7-7-7-7-7-7-7-7-|

   If you're friends of P...

Violin Part, Bridge at about 2:30:

G|-----------------------------------------------------------------|
D|-----------------------------------------------------------------|
A|-----------------------------------------------------------------|
D|-0-0-0-0-0-0-0-0-5-5-5-5-5-5-5-5-7-7-7-7-7-7-7-7-4-4-4-4-5-5-5-5-|

    *Violin Playing*

So, there's the whole tab! Any questions, comments, or have
any rare Rentals bass tabs, e-mail me at supercletus@hotmail.com

Comments