Rent - Seasons Of Love Chords & Tabs

 

Seasons Of Love Chords & Tabs

Rent Chords & Tabs

Version: 1 Type: Tab

Seasons Of Love Tab

This is my first tab, correct me if I'm wrong... It's not the same key but the tune is 
Enjoy!

[Intro]
e -----3--------------------    ---0---3--------------|
B--------3---1-1-1---0-1----    --------3--0-1-1-1----|
G---------------------------x3  ----------------------|
D---------------------------    ----------------------|
A---------------------------    ----------------------|
E---------------------------    ----------------------|
[ Tab from: http://www.guitartabs.cc/tabs/r/rent/seasons_of_love_tab.html ]
    "Five hundred..."
e --3--3--3--------------------0--3----3--3--3------------------------0-----|
B------------3-3-3-3-0--1-1-1---------------------3-3-3-3-0--1-1-1----------|
G---------------------------------------------------------------------------|
D---------------------------------------------------------------------------|
A---------------------------------------------------------------------------|
E---------------------------------------------------------------------------|
                                       "How do you..."
e----3-3-3------------------------0--3---------3--3--3----------------------|
B------------3-3-3-3-0--1--1--1---------1----------------3--3--0--1--1--1-1-|
G---------------------------------------------------------------------------|
D---------------------------------------------------------------------------|
A---------------------------------------------------------------------------|
E---------------------------------------------------------------------------|