Rent - Out Tonight Chords & Tabs

 

Rent Chords & Tabs

Version: 1 Type: Tab 0 ratings
1 star 2 stars 3 stars 4 stars 5 stars
comments

Out Tonight Tab

tabbed by: xMajinx
email: shadowshedding@hotmail.com

Out Tonight

play this for the intro, from "What's the time?" 'til "flirt with a stranger", and once 
after the first chorus.
-----5--------|
---------5----|
-------6---7--|
--7-----------|
--7-----------|
--5-----------|

[ Tab from: http://www.guitartabs.cc/tabs/r/rent/out_tonight_tab.html ]
"I've had a knack from way back..."
It's pretty easy to figure out when to change chords, so I'm just gonna give you the 
chords and you can figure out when to play them.
-----------------|
-----------------|
-------7---------|
-3-----7-----7---|
-3-----5-----7---|
-1-----------5---|


"Get up, life's too quick..."
-----------------|
-----------------|
-------7---------|
-3-----7------2--|
-3-----5------2--|
-1------------0--|


"We don't need any money..."
"When I get a wink from the doorman..."
--------------|
--------------|
------7-------|
-4----7-------| x2
-4----5-------|
-2------------|


"You can get in to..."
"You're online with the feline..."
--------------|
--------------|
-3----5-------|
-3----5----2--|
-5----7----2--|
-----------0--|
Comments