Rent - One Song Glory Chords & Tabs

 

Rent Chords & Tabs

Version: 3 Type: Tab 0 ratings
1 star 2 stars 3 stars 4 stars 5 stars
comments

One Song Glory Tab

   
-------------------------------------------------------------------------------
                 One song Glory - RENT (The Musical)
-------------------------------------------------------------------------------
Tabbed by: Danniel
Email: k2kobra@gmail.com

Tuning: Standard

I noticed all the other tabs out there have something not quite right about them. 
with the song, listening closely, and jotting everything down; this is what I got:

Intro:
e|------------------------------------------------------|
B|------------------------------------------------------|
G|----11-10---------11-10------8-6-----8-6-----------10-|
D|----------8-------------8------------------------8----|
A|-9-------------------------------9-------9/11---------|
E|--------------11-----------7------9----------11-------|
[ Tab from: http://www.guitartabs.cc/tabs/r/rent/one_song_glory_tab_ver_3.html ]
F#              D#m               B     C#           
 D#m
 One song glory one song before I go glory one song to leave behind.
      B            C#        D#m
 Find one song one last refrain glory
                     B      C#    D#m
 from the pretty-boy frontman who wasted opportunity.
      F#                           D#m
 One song, he had the world at his feet glory
                   B         C#    D#m
 in the eyes of a young girl... a young girl.
     F#                              D#m
 Find glory beyond the cheap colored lights, one song before the sun sets.
B      C#   D#m              B        C#  
         F#
 Glory on another empty life.  Time flies... time dies.
G#m   B  F#           G#m B F#     
        G#m B F#   C#  D#m
 Glory... one blaze of glory.  One blaze of glory...   glory...
    F#                           D#m
 Find glory in a song that rings true,
                          B      C#        D#m
 truth like a blazing fire... an eternal flame.
     F#                     D#m
 Find one song a song about love, glory,
                    B       C#       D#m
 from the soul of a young man... a young man.
   B              C#                       D#m7
 Find the one song before the virus takes hold glory like a sunset.
B        C#     D#m
 One song to redeem this empty life.
B     C# D#m                                  B      
 C#    F#
 Time flies, and then no need to endure anymore.  Time dies...


I played the chords like this (pretty simple):


   F#    D#m   B     C#    G#m
e|-2-----6-----2-----4-----4-----|
B|-2-----7-----4-----6-----4-----|
G|-3-----8-----4-----6-----4-----|
D|-4-----8-----4-----6-----6-----|
A|-4-----6-----2-----4-----6-----|
E|-2-----------------------4-----|

Dedicated to V.
Comments