Rent - Musettas Wlatz Chords & Tabs

 

Rent Chords & Tabs

Version: 1 Type: Tab 0 ratings
1 star 2 stars 3 stars 4 stars 5 stars
comments

Musettas Wlatz Tab

Okay, this solo was taken from the Easy Piano book for RENT, and I converted it into tab 
Also, I moved the last three notes down an octave, because they sounded nicer.

E----------------|
A--1---------1-0-|
D----------0-----|
G--------2-------|
B------3---------|
E----------------|


E------------|
A--------0---|
D------0---2-|
G----2-------|
B--3---------|
E------------|


E------------------|
A----0-1-0---1-----|
D--2-------2-------|
G--------------3-3-|
B------------------|
E------------------|

[ Tab from: http://www.guitartabs.cc/tabs/r/rent/musettas_wlatz_tab.html ]
E------------------|
A------0-----0-----|
D--0-2---2-0-------|
G--------------2-2-|
B------------------|
E------------------|


E--------------|
A--1-------1-0-|
D--------0-----|
G------2-------|
B----3---------|
E--------------|


E------------|
A--------0---|
D------0---2-|
G----2-------|
B--3---------|
E------------|


E----------3-0---------|
A------0-1-----3-1-----|
D--2-2-------------2---|
G--------------------2-|
B----------------------|
E----------------------|

E------------|
A------------|
D--0-2-------|
G------------|
B------2-3-3-|
E------------|


Well, there it is, my first tab. Enjoy.
Comments