Rent - Musettas Waltz Chords & Tabs

 

Rent Chords & Tabs

Version: 2 Type: Tab 0 ratings
1 star 2 stars 3 stars 4 stars 5 stars
comments

Musettas Waltz Tab

im pretty sure this is the easiest way possible to play it.
[ Tab from: http://www.guitartabs.cc/tabs/r/rent/musettas_waltz_tab_ver_2.html ]
8----8-7-----7-----------------------------------------8----8-7-----7------|
-----8-------8--10-10-12-13-13------8-10-12-10-8-12---------8-------8--10--|
----9-------9-----------------10-10-----------------9-9----9-------9-------|
--10------10---------------------------------------------10------10--------|
---------------------------------------------------------------------------|
---------------------------------------------------------------------------|

---------15-----------------------------|
-10-12-13--17-15------------------------|
----------------17-14-------------------|
---------------------14-17---910-10-----|
----------------------------------------|
----------------------------------------|
Comments