Rent - Musettas Waltz Chords & Tabs

 

Musettas Waltz Chords & Tabs

Rent Chords & Tabs

Version: 1 Type: Tab

Musettas Waltz Tab

This is what i think it sounds like...
[ Tab from: http://www.guitartabs.cc/tabs/r/rent/musettas_waltz_tab.html ]
--8------8-7------7-5-7-8-1-1-1-3-5-0-0-8--------8-7--------7-5-7--|
--------8--------8------------------------------8----------8-------|
------9--------9------------------------------9----------9---------|
----10-------10----------------------------10---------10-----------|
-------------------------------------------------------------------|
-------------------------------------------------------------------|


8-15-13-12-9-7-8---|
-------------------|
-------------------|
-------------------|
-------------------|
-------------------|

It is a very easy song to play...enjoy.---Ian Naber