Renounced - Nothing Chords & Tabs

 

Nothing Chords & Tabs

Renounced Chords & Tabs

Version: 1 Type: Tab 0 ratings
1 star 2 stars 3 stars 4 stars 5 stars
comments

Nothing Tab

   
    e|----------------|
    b|----------------|
GTR G|----------------|
 1  D|----------------|
    A|----------------|
    D|----------------|

    e|-------------12-|
    b|----------10----|
GTR G|-------13-------|
 2  D|----------------| x4
    A|-0-0-0----------|
    D|-0-0-0----------|
       PMP M

    e|-12-12-12------------|
    b|-10-10-10-(ring out)-|
GTR G|-13-13-13------------|
 1  D|---------------------|
    A|---------------------|
    D|---------------------|

    e|-------------12-|
    b|----------10----|
GTR G|-------13-------|
 2  D|----------------| x4
    A|-0-0-0----------|
    D|-0-0-0----------|
       PMP M

     e|-------------------------|
     b|-------------------------|
GTR  G|-------------------------|
1+2  D|-6-6-6-6-6-6-6-6-6-6-6-6-|
     A|-4-4-4-4-4-4-4-4-4-4-4-4-|
     D|-4-4-4-4-4-4-4-4-4-4-4-4-|

     e|-------------12-|
     b|----------10----|
GTR  G|-------13-------|
1+2  D|----------------| x2
     A|-0-0-0----------|
     D|-0-0-0----------|
        PMP M

     e|-------------------------|
     b|-------------------------|
GTR  G|-------------------------|
1+2  D|-6-6-6-6-6-6-6-6-6-6-6-6-|
     A|-4-4-4-4-4-4-4-4-4-4-4-4-|
     D|-4-4-4-4-4-4-4-4-4-4-4-4-|

    e|-------------------------------------------------|
    b|-------------------------------------------------|
GTR G|-7-6---7-6---7-6-7-9-7-6-7-6---7-6---7-6-7-9-7-6-|
 1  D|-----7-----7-----------------7-----7-------------| x4
    A|-------------------------------------------------|
    D|-------------------------------------------------|

    e|-------------------------------------------------|
    b|-------------------------------------------------|
GTR G|-------------------------------------------------|
 2  D|-------------------------------------------7-7-7-| x4
    A|-------------------------------------------7-7-7-|
    D|-000000000000000000000000-4444444444444444-7-7-7-|
       PMPMPMPMPMPMPMPMPMPMPMPM PMPMPMPMPMPMPMPM

    e|----------------------------------------------------|
    b|-----------------10-10-10-10------------------------|
GTR G|-----------------13-13-13-13------------------------|
 1  D|--------------------------------------------6--6--6-|
    A|-2-1-0---2-1-0---------------2-1-0---2-1-0--4--4--4-|
    D|-2-1-0---2-1-0---------------2-1-0---2-1-0--4--4--4-|
       P M     P M

    e|----------------------------------------------------|
    b|----------------------------------------------------|
GTR G|----------------------------------------------------|
 2  D|--------------------------------------------6--6--6-|
    A|-2-1-0---2-1-0---------------2-1-0---2-1-0--4--4--4-|
    D|-2-1-0---2-1-0---------------2-1-0---2-1-0--4--4--4-|
       P M     P M

     e|----------------------------------------|
     b|----------------------------------------|
GTR  G|----------------------------------------|
1+2  D|----------------------------------------|
     A|-0-0-0-0-0000-0-0-0-0-0000-0-0-0-0-0000-|
     D|-1-1-1-1-1111-1-1-1-1-1111-1-1-1-1-1111-|
        P M P M PMPM P M P M PMPM P M P M PMPM

    e|---------------------|
    b|---10---10---10---10-|
GTR G|---13---13---13---13-|
 1  D|---------------------|
    A|-0----0----0----0----|
    D|-0----0----0----0----|
      PM   PM   PM   PM

    e|---------------------|
    b|-10---10---10---10---|
GTR G|-13---13---13---13---|
 2  D|---------------------|
    A|----0----0----0----0-|
    D|----0----0----0----0-|
         PM   PM   PM   PM

     e|-------------------|
     b|-------------------|
GTR  G|-------------------|
1+2  D|-------------------| x3
     A|-0-0-0-0-----------|
     D|-0-0-0-0-----------|
        P M P M 

     e|-------------------|
     b|-------------------|
GTR  G|-------------------|
 1   D|-------------------|
     A|-0-0-0-0-----------|
     D|-0-0-0-0-----------|
        P M P M 

    e|--------------------|
    b|--------------------|
GTR G|--------------7-7-7-|
 2  D|--------------5-5-5-|
    A|-0-0-0-0------5-5-5-|
    D|-0-0-0-0------5-5-5-|
       P M P M

    e|-----------------|
    b|-----------------|
GTR G|-----------------|
 1  D|---------1-1-1-1-|
    A|---------1-1-1-1-|
    D|---------1-1-1-1-|

    e|-----------------|
    b|-----------------|
GTR G|-----------------|
 2  D|-3-3-3-3---------|
    A|-3-3-3-3---------|
    D|-1-1-1-1---------|

    e|-------------------------|
    b|-4-3---4-3---4-3-4-6-4-3-|
GTR G|-----5-----5-------------|
 1  D|-------------------------|
    A|-------------------------|
    D|-------------------------|

    e|-------------------------|
    b|-------------------------|
GTR G|-------------------------|
 2  D|-3-3-3-3-3-3-1-1-1-1-1-1-|
    A|-3-3-3-3-3-3-1-1-1-1-1-1-|
    D|-1-1-1-1-1-1-1-1-1-1-1-1-|

    e|-------------------------|
    b|-4-3---4-3---4-3-4-6-4-3-|
GTR G|-------------------------|
 1  D|-----5-----5-------------|
    A|-------------------------|
    D|-------------------------|

    e|-------------------------|
    b|-------------------------|
GTR G|-9-9-9-9-9-9-------------|
 2  D|-7-7-7-7-7-7-5-5-5-5-5-5-|
    A|-5-5-5-5-5-5-5-5-5-5-5-5-|
    D|-5-5-5-5-5-5-5-5-5-5-5-5-|

    e|-------------------------|
    b|-4-3---4-3---4-3-4-6-4-3-|
GTR G|-------------------------|
 1  D|-----5-----5-------------|
    A|-------------------------|
    D|-------------------------|

    e|-------------------------|
    b|-------------------------|
GTR G|-9-9-9-9-9-9-9-9-9-9-9-9-|
 2  D|-7-7-7-7-7-7-7-7-7-7-7-7-|
    A|-5-5-5-5-5-5-5-5-5-5-5-5-|
    D|-5-5-5-5-5-5-5-5-5-5-5-5-|

    e|-------------------------|
    b|-4-3---4-3---4-3-4-6-4-3-|
GTR G|-----5-----5-------------|
 1  D|-------------------------| x2
    A|-------------------------|
    D|-------------------------|

    e|-------------------------|
    b|-------------------------|
GTR G|-------------------------|
 2  D|-3-3-3-3-3-3-1-1-1-1-1-1-| x2
    A|-3-3-3-3-3-3-1-1-1-1-1-1-|
    D|-1-1-1-1-1-1-1-1-1-1-1-1-|

    e|-------------------------|
    b|-4-3---4-3---4-3-4-6-4-3-|
GTR G|-------------------------|
 1  D|-----5-----5-------------|
    A|-------------------------|
    D|-------------------------|

    e|-------------------------|
    b|-------------------------|
GTR G|-9-9-9-9-9-9-------------|
 2  D|-7-7-7-7-7-7-5-5-5-5-5-5-|
    A|-5-5-5-5-5-5-5-5-5-5-5-5-|
    D|-5-5-5-5-5-5-5-5-5-5-5-5-|

    e|---------------------------|
    b|-4-3-4-6-4-6-8-6-8-10-8-10-|
GTR G|---------------------------|
 1  D|---------------------------|
    A|---------------------------|
    D|---------------------------|

    e|-------------------------|
    b|-------------------------|
GTR G|-9-9-9-9-9-9-9-9-9-9-9-9-|
 2  D|-7-7-7-7-7-7-7-7-7-7-7-7-|
    A|-5-5-5-5-5-5-5-5-5-5-5-5-|
    D|-5-5-5-5-5-5-5-5-5-5-5-5-|

    e|---------------------------------------------------------------------|
    b|-11111111111111111111111111-131313131313-10101010-11111111-1010-1111-|
GTR G|---------------------------------------------------------------------|
 1  D|---------------------------------------------------------------------| 1,3
    A|---------------------------------------------------------------------|
    D|---------------------------------------------------------------------|

    e|-------------------------------------------------|
    b|-------------------------------------------------|
GTR G|-------------------------------------------------|
 2  D|-3-3-3-3-3-3-3-3-3-3-3-3-1-1-1-1-1-1-1-1-1-1-1-1-| 1,3
    A|-3-3-3-3-3-3-3-3-3-3-3-3-1-1-1-1-1-1-1-1-1-1-1-1-|
    D|-1-1-1-1-1-1-1-1-1-1-1-1-1-1-1-1-1-1-1-1-1-1-1-1-|
       P M P M P M P M P M P M P M P M P M P M P M P M

    e|-----------------------------------------------------------------------------|
    b|-15151515151515151515151515-161616161616-1515151515151515-18181818-1616-1515-|
GTR G|-----------------------------------------------------------------------------|
 1  D|-----------------------------------------------------------------------------| 2
    A|-----------------------------------------------------------------------------|
    D|-----------------------------------------------------------------------------|

    e|-------------------------------------------------|
    b|-------------------------------------------------|
GTR G|-------------------------------------------------|
 2  D|-------------------------------------8-8-8-8-8-8-| 2
    A|-5-5-5-5-5-5-5-5-5-8-8-8-5-5-5-5-5-5-8-8-8-8-8-8-|
    D|-5-5-5-5-5-5-5-5-5-8-8-8-5-5-5-5-5-5-8-8-8-8-8-8-|
       P M P M P M P MPM PMP M P M P M P M  


    e|-----------------------------------------------------------------------------|
    b|-15151515151515151515151515-161616161616-1515151515151515-18181818-1616-1515-|
GTR G|-----------------------------------------------------------------------------|
 1  D|-----------------------------------------------------------------------------| 4
    A|-----------------------------------------------------------------------------|
    D|-----------------------------------------------------------------------------|
[ Tab from: http://www.guitartabs.cc/tabs/r/renounced/nothing_tab.html ]
    e|-------------------------------------------------------------|
    b|-------------------------------------------------------------|
GTR G|-------------------------10-10-10-10-10-10-10-10-10-10-10-10-|
 2  D|-------------------------9--9--9--9--9--9--9--9--9--9--9--9--| 4
    A|-5-5-5-5-5-5-5-5-5-8-8-8-8--8--8--8--8--8--8--8--8--8--8--8--|
    D|-5-5-5-5-5-5-5-5-5-8-8-8-8--8--8--8--8--8--8--8--8--8--8--8--|
       P M P M P M P MPM PMP M 

    e|---------------|
    b|-11-(let ring)-|
GTR G|---------------|
 1  D|---------------|
    A|---------------|
    D|---------------|

    e|--------------|
    b|--------------|
GTR G|--------------|
 2  D|-1------------|
    A|-1-(let ring)-|
    D|-1------------|

    e|-------------------------------------------------------------------------------------------------|
    b|-------6-----------6-----------6-----------6-----------6-----------6-----------6-----------6-----|
GTR G|-----7---7-------7---7-------7---7-------7---7-------7---7-------7---7-------7---7-------7---7---|
 1  D|---8-------8---8-------8---8-------8---8-------8---8-------8---8-------8---8-------8---8-------8-|
    A|-6-----------6-----------6-----------5-----------------------------------------------------------|
    D|-------------------------------------------------5-----------5-----------5-----------0-----------|

    e|--------------------------------------------------------------|
    b|--------------------------------------------------------------|
GTR G|--------------------------------------------------------------|
 2  D|-(1)-------------------------------------------1/5------------|
    A|-(1)-(let ring)--------------------------------1/5-(let ring)-|
    D|-(1)-------------------------------------------1/5------------|

    e|-------------------------------------------------------------------------------------------------|
    b|-------6-----------6-----------6-----------6-----------6-----------6-----------6-----------6-----|
GTR G|-----7---7-------7---7-------7---7-------7---7-------7---7-------7---7-------7---7-------7---7---|
 1  D|---8-------8---8-------8---8-------8---8-------8---8-------8---8-------8---8-------8---8-------8-|
    A|-6-----------6-----------6-----------5-----------------------------------------------------------|
    D|-------------------------------------------------5-----------5-----------5-----------0-----------|

    e|--------------------------------------------------------------|
    b|--------------------------------------------------------------|
GTR G|--------------------------------------------------------------|
 2  D|-1---------------------------------------------1/5------------|
    A|-1-(let ring)----------------------------------1/5-(let ring)-|
    D|-1---------------------------------------------1/5------------|

    e|-------------------------------------------------------------------------------------------------|
    b|-------6-----------6-----------6-----------6-----------6-----------6-----------6-----------6-----|
GTR G|-----7---7-------7---7-------7---7-------7---7-------7---7-------7---7-------7---7-------7---7---|
 1  D|---8-------8---8-------8---8-------8---8-------8---8-------8---8-------8---8-------8---8-------8-|
    A|-6-----------6-----------6-----------5-----------------------------------------------------------|
    D|-------------------------------------------------5-----------5-----------5-----------0-----------|

    e|-------------------------------------------------------------------------------------------------|
    b|-------------------------------------------------------------------------------------------------|
GTR G|-------------------------------------------------------------------------------------------------|
 2  D|-8-8-8-8-8-8-8-8-8-8-8-8-8-8-8-8-8-8-8-8-8-8-8-8-------------------------------------------------|
    A|-6-6-6-6-6-6-6-6-6-6-6-6-6-6-6-6-6-6-5-5-5-5-5-5-5-5-5-5-5-5-5-5-5-5-5-5-5-5-5-5-5-5-5-5-5-5-5-5-|
    D|-------------------------------------------------5-5-5-5-5-5-5-5-5-5-5-5-8-8-8-8-8-8-0-0-0-0-0-0-|
       P M P M P M P M P M P M P M P M P M P M P M P M P M P M P M P M P M P M P M P M P M P M P M P M

    e|-------------------------------------------------------------------------------------------------|
    b|-------6-----------6-----------6-----------6-----------6-----------6-----------------------------|
GTR G|-----7---7-------7---7-------7---7-------7---7-------7---7-------7---7---7-7-7-7-7-7-7-7-7-7-7-7-|
 1  D|---8-------8---8-------8---8-------8---8-------8---8-------8---8-------8-8-8-8-8-8-8-8-8-8-8-8-8-|
    A|-6-----------6-----------6-----------5-----------------------------------5-5-5-5-5-5-5-5-5-5-5-5-|
    D|-------------------------------------------------5-----------5-----------5-5-5-5-5-5-5-5-5-5-5-5-|

    e|-------------------------------------------------------------------------------------------------|
    b|-------------------------------------------------------------------------------------------------|
GTR G|-------------------------------------------------------------------------------------------------|
 2  D|-8-8-8-8-8-8-8-8-8-8-8-8-8-8-8-8-8-8-8-8-8-8-8-8-------------------------8-8-8-8-8-8-8-8-8-8-8-8-|
    A|-6-6-6-6-6-6-6-6-6-6-6-6-6-6-6-6-6-6-5-5-5-5-5-5-5-5-5-5-5-5-5-5-5-5-5-5-8-8-8-8-8-8-8-8-8-8-8-8-|
    D|-------------------------------------------------5-5-5-5-5-5-5-5-5-5-5-5-8-8-8-8-8-8-8-8-8-8-8-8-|
       P M P M P M P M P M P M P M P M P M P M P M P M P M P M P M P M P M P M 

     e|-------------------------------------------------|
     b|-------------------------------------------------|
GTR  G|-------------------------------------------------|
1+2  D|-1-1-1-1-1-1-1-1-1-1-1-1-1-1-1-1-1-1-8-8-8-8-8-8-|
     A|-1-1-1-1-1-1-1-1-1-1-1-1-1-1-1-1-1-1-8-8-8-8-8-8-|
     D|-1-1-1-1-1-1-1-1-1-1-1-1-1-1-1-1-1-1-8-8-8-8-8-8-|

    e|------------------------------------------------------------------------------------------------|
    b|------------------------------------------------------------------------------------------------|
GTR G|------------------------------------------------------------------------------------------------|
 1  D|------------------------------------------------------------------------------------------------|
    A|-0-0-0--------------------0-0-0-----------------0-0-0------------------0-0-0-------------10-----|
    D|-0-0-0--------------------0-0-0-----------------0-0-0------------------0-0-0-------------13-----|
       PMP M                    PMP M                 PMP M                  PMP M

    e|------------------------------------------------------------------------------------------------|
    b|-------1010101010101010101010101010101010101010101010101010101010101010101010101010101010101010-|
GTR G|-------1313131313131313131313131313131313131313131313131313131313131313131313131313131313131313-|
 2  D|------------------------------------------------------------------------------------------------|
    A|-0-0-0------------------------------------------------------------------------------------------|
    D|-0-0-0------------------------------------------------------------------------------------------|
       PMP M

    e|------------------------------|
    b|---------10---10---10---10-10-|
GTR G|---------13---13---13---13-13-|
 1  D|------------------------------| x8
    A|-0-0-0-0----0----0----0-------|
    D|-0-0-0-0----0----0----0-------|
       P M P M   PM   PM   PM

    e|--------------------------|
    b|-------101010101010101010-|
GTR G|-------131313131313131313-|
 2  D|--------------------------| x8
    A|-0-0-0--------------------|
    D|-0-0-0--------------------|
      PM P M

    e|-------17-------17-------17-------|
    b|----------15-------15-------15----|
GTR G|-------------18-------18-------18-|
 1  D|----------------------------------| x4
    A|-0-0-0----------------------------|
    D|-0-0-0----------------------------|
      PM P M

    e|-------12-------12-------12-------|
    b|----------10-------10-------10----|
GTR G|-------------13-------13-------13-|
 2  D|----------------------------------| x4
    A|-0-0-0----------------------------|
    D|-0-0-0----------------------------|
      PM P M

    e|-------18-------18-------18-------|
    b|----------16-------16-------16----|
GTR G|-------------19-------19-------19-|
 1  D|----------------------------------| x3
    A|-0-0-0----------------------------|
    D|-0-0-0----------------------------|
      PM P M

    e|-------12-------12-------12-------|
    b|----------10-------10-------10----|
GTR G|-------------13-------13-------13-|
 2  D|----------------------------------| x3
    A|-0-0-0----------------------------|
    D|-0-0-0----------------------------|
      PM P M

    e|-18-------18-------18-------18-------|
    b|----16-------16-------16-------16----|
GTR G|-------19-------19-------19-------19-|
 1  D|-------------------------------------| 
    A|-------------------------------------|
    D|-------------------------------------|

    e|-12-------12-------12-------12-------|
    b|----10-------10-------10-------10----|
GTR G|-------13-------13-------13-------13-|
 2  D|-------------------------------------| 
    A|-------------------------------------|
    D|-------------------------------------|

    e|------------------------------------|
    b|------------------------------------|
GTR G|------------------------------------|
 1  D|-6----------------------------------|
    A|-4-(Let ring)-----------------------|
    D|-4-------------------t12------------|

    e|------------------------------------|
    b|------------------------------------|
GTR G|------------------------------------|
 2  D|-0----------------------------------|
    A|-0-(Let ring)-----------------------|
    D|-0----------------------------------|
Comments