Rencilla - Adrenalina Chords & Tabs

 

Adrenalina Chords & Tabs

Rencilla Chords & Tabs

Version: 1 Type: Tab 0 ratings
1 star 2 stars 3 stars 4 stars 5 stars
comments

Adrenalina Tab

   
Banda: Rencilla
Tema: "Adrenalina"
Álbum: Pies de Loto (2003)
Tab por: Joriel Vásquez (19/05/05)

Una de las mejores bandas del patio y ésta song es una de las que más tripeo
por eso la sake y tiene mansa letra, Rencilla rulz... \m/ >_< \m/

Tuning: Mi/Standard E 
Utiliza un pedal Heavy Distortion

Intro:
e|---------|-|---------|-|
B|---------|B|---------|B|
G|---------|A|---------|A|
D|-5~----5-|J|-5~----5-|J|
A|-5~----5-|O|-5~----5-|O|
E|-3~----3-|-|-3~----3-|-|

Verso:
e|----------------------------------|
B|----------------------------------|
G|----------------------------------|
D|-55-5555-55-55555-6-6-3-3-6-6-9-9-| 
A|-55-5555-55-55555-6-6-3-3-6-6-9-9-| (4x)
E|-33-3333-33-33333-4-4-1-1-4-4-7-7-|

Coro:
e|------------------------------------------|
B|------------------------------------------|
G|------------------------------------------|
D|-10--10-10--11111111--10--10-10--8-8-1111-|
A|-10--10-10--11111111--10--10-10--8-8-1111-| (2x)
E|--8---8--8---9-9-9-9---8---8--8--6-6--9-9-|
   "Humor... que comienza a cambiar..."

e|-----------------------------------------------|
B|-----------------------------------------------|
G|-----------------------------------------------|
D|-10-10-10-10-11-11-11-11-10-10-10-10-8-8-11-11-| 
A|-10-10-10-10-11-11-11-11-10-10-10-10-8-8--9--9-| (2x)
E|--8--8--8--8--9--9--9--9--8--8--8--8-6-6--9--9-|
                                  "... es ironía!.."

Verso (4x)

Coro 

Break:
e|------------------------------------------|
B|------------------------------------------|
G|------------------------------------------|
D|-5-555555555-8-8-8-1111-111111-1010-11-10-|
A|-5-555555555-8-8-8-1111-111111-1010-11-10-| (4x)
E|-3-333333333-6-6-6--9-9--9-9-9--8-8--9--8-|
     .........
   "La realidad..."

e|----------------------|
B|----------------------|
G|----------------------|
D|-5~----811-1110-11-10-|
A|-5~----811-1110-11-10-| (2x)
E|-3~----6-9--9-8--9--8-|
   "... frustrará la realidad"
[ Tab from: http://www.guitartabs.cc/tabs/r/rencilla/adrenalina_tab.html ]
e|-----------------------------------------------------------|
B|-----------------------------------------------------------|
G|-----------------------------------------------------------|
D|-5---8--8--10-8-5-555555555-5--5-5--5-3-3--5-3-5-555555555-|
A|-5---8--8--10-8-5-555555555-5--5-5--5-3-3--5-3-5-555555555-|
E|-3---6--6---8-6-3-333333333-3--3-3--3-1-1--3-1-3-333333333-|
                    .........                      .........
  "ADRENALINA!"               "Ambos venimos de la misma fuente..."

e|--------------------------------------------------------------------|
B|--------------------------------------------------------------------|
G|--------------------------------------------------------------------|
D|-5--5-5-5--8--8--10-8-5-555555555-5--5-5--5-3-3--5-3-5-555555555555-|
A|-5--5-5-5--8--8--10-8-5-555555555-5--5-5--5-3-3--5-3-5-555555555555-|
E|-3--3-3-3--6--6---8-6-3-333333333-3--3-3--3-1-1--3-1-3-333333333333-|
                          .........                      ............
  "ADRENALINA! Quítame el terror..."

Verso:
e|----------------------------------|
B|----------------------------------|
G|----------------------------------|
D|-55-5555-55-55555-6-6-3-3-6-6-9-9-| 
A|-55-5555-55-55555-6-6-3-3-6-6-9-9-| (4x)
E|-33-3333-33-33333-4-4-1-1-4-4-7-7-|
  "Liberar! a todas las toxinas..."

Coro:
e|------------------------------------------|
B|------------------------------------------|
G|------------------------------------------|
D|-10--10-10--11111111--10--10-10--8-8-1111-|
A|-10--10-10--11111111--10--10-10--8-8-1111-| (2x)
E|--8---8--8---9-9-9-9---8---8--8--6-6--9-9-|
   "Humor... que comienza a cambiar..."

e|-----------------------------------------------|
B|-----------------------------------------------|
G|-----------------------------------------------|
D|-10-10-10-10-11-11-11-11-10-10-10-10-8-8-11-11-| 
A|-10-10-10-10-11-11-11-11-10-10-10-10-8-8--9--9-| 
E|--8--8--8--8--9--9--9--9--8--8--8--8-6-6--9--9-|
                                  "... es ironía..."

e|---------------------------------------------------|
B|---------------------------------------------------|
G|---------------------------------------------------|
D|-10-10-10-10-11-11-11-11-10-10-10-10-8-8-11-11-10--|
A|-10-10-10-10-11-11-11-11-10-10-10-10-8-8--9--9-10--|
E|--8--8--8--8--9--9--9--9--8--8--8--8-6-6--9--9--8\-|
   "Sacando todo lo que me inmunda es A DRE NA LINA!"

         FIN!

(~): Deja vibrar las cuerdas un rato.
(.): Palm Mute con tremolo picking.
(\): Haz un slide hacia abajo.

Bueno fren ese es el tab, si tienes un ZOOM 505II utiliza el patch 
"Metal Panel" o A3 y t va a sonar igualito.
Si tienes algún comentario una vaina así,pregunta lo q sea mandame un mail a
jvc182diota@hotmail.com o postealo aki.

CALIFICA EL TAB! RATE PLEASE!

www.rencilla.com

Nos pillamos...
Comments