Renaissance - Spare Some Love Chords & Tabs

 

Spare Some Love Chords & Tabs

Renaissance Chords & Tabs

Version: 2 Type: Bass Tab 0 ratings
1 star 2 stars 3 stars 4 stars 5 stars
comments

Spare Some Love Bass Tab

                                Spare Some Love
                                  Renaissance
                                                      Transcribed by Justin Benz


    Guitar, Vocals    0:29                                                      
G---|-----------------|-----------12-----|---------------------5-----5----------
D---|-----------------|---------------12\|----------------5h7-----------5h7-----
A---|-----------------|------------------|--3-----3--5/7------------------------
E---|-----------------|------------------|--------------------------------------
                                                                                

                                                                                
G---5h7--|------------------------------------------|---------------------------
D--------|--5-----5-------3-------------------3-----|--3-----3-------3-----3----
A--------|-----------3h5-----5-----------3h5-----5--|-----------3h5-----5-------
E--------|----------------------3-----3-------------|---------------------------
                                                                                

                                                                                
G------------------|-------------------------------------|----------------------
D---------3-----5--|/6-----5-----3-----2-----------------|----------------------
A------3-----------|-------------------------5-----1-----|--3-----3--3-----3----
E------------------|-------------------------------------|----------------------
                                                                                

                                                                0:50            
G------------------------|-----------------------------5--------|---------------
D------------------------|--------------------------------7-----|--7-----7------
A---3-----3--------1--2--|--3-----3--3-----3--3-----3--------7--|---------------
E------------1--3--------|--------------------------------------|---------------
                                                                                

                                                                                
G--------------------------4--5--4--------|-------------------------------------
D---7-------5--6--7-----7-----------5-----|--7-----7--7-------5--6--7-----7-----
A------5h7-----------------------------7--|--------------5h7--------------------
E-----------------------------------------|-------------------------------------
                                                                                

                                                                                
G----------------|------------------------------------------------|-------------
D---7-------5h7--|--5-----5--5-------3--4--5-----5--5-------3--4--|--5-----5----
A------5h7-------|--------------3h5--------------------3h5--------|-------------
E----------------|------------------------------------------------|-------------
                                                                                

                                                                                
G----------------7--7--7--7--7--5--------|--------------------------------------
D---5-------3h5--------------------5-----|--7-----7--7-------5--6--7-----7------
A------3h5----------------------------7--|--------------5h7---------------------
E----------------------------------------|--------------------------------------
                                                                                

                                                                                
G---4--5--4--------|-----------------------------------------------|------------
D------------5-----|--7-----7--7-------5--6--7-----7--7-------5h7--|--5---------
A---------------7--|--------------5h7--------------------5h7-------|------------
E------------------|-----------------------------------------------|------------
                                                                                

                                                                                
G--------------------------------------------|-----------------------|----------
D---5--5-------3-----5--5--5--3--5--3--------|-----------------------|----------
A---------3h5-----5--------------------5--4--|--3--------------1--2--|--3-------
E--------------------------------------------|--------------3--------|----------
                                                                                

                   1:19                                                         
G------------------|--------------------------|---------------------------------
D------------------|-----------5-----3-----2--|--5---------------------3--------
A------------1--2--|--3-----------------------|--------3h5--------3h5-----5-----
E---------3--------|--------------------------|-------------3-------------------
                                                                                

                                                                                
G---|----------------------------------------|----------------------------------
D---|--3-----3-------3-----3--------3-----5--|/6-----5-----3-----2--------------
A---|-----------3h5-----5--------3-----------|-------------------------5--------
E---|----------------------------------------|----------------------------------
                                                                                

                                                                                
G------|-------------------------------------------|----------------------------
D------|-------------------------------------------|----------------------------
A---1--|--1/3-----3--3-----3--3-----3--------1--2--|--3-----3--3-----3--3-------
E------|-------------------------------1--3--------|----------------------------
                                                                                

                                                                                
G----------------|---------------------5-----5-------5h7--|---------------------
D-----------5h7--|----------------5h7-----------5h7-------|--5-----5-------3----
A---3--5/7-------|--3-----3--5/7--------------------------|-----------3h5-------
E----------------|----------------------------------------|---------------------
                                                                                

                                                                                
G---------------------|----------------------------------------|----------------
D---------------5--4--|--3-----3-------3-----3--------3-----5--|/6-----5--------
A---5--------5--------|-----------3h5-----5--------3-----------|----------------
E------3--------------|----------------------------------------|----------------
                                                                                

                                                                                
G---------------------------|-----------------------------------------|---------
D---3-----2-----------------|-----------------------------------------|---------
A---------------5-----1-----|--3-----3--3-----3--3-----3--------1--2--|--3------
E---------------------------|-----------------------------1--3--------|---------
                                                                                

                                     1:58                                       
G---------------------------5--------|----------------------------------4--5----
D------------------------------5-----|--7-----7--7-------5--6--7-----7----------
A------3--3-----3--3-----3--------7--|--------------5h7-------------------------
E------------------------------------|------------------------------------------
                                                                                

                                                                                
G---4--------|---------------------------------------------------|--------------
D------5-----|--5/7-----7--7-------5-----5h7-----7--7-------5h7--|--5-----5-----
A---------7--|----------------5h7-----7----------------5h7-------|--------------
E------------|---------------------------------------------------|--------------
                                                                                

                                                                                
G----------------------------------------|------------------------7--7--7--7----
D---5-------3--4--5-----5--5-------3--4--|--5-----5--5-------3h5----------------
A------3h5--------------------3h5--------|--------------3h5---------------------
E----------------------------------------|--------------------------------------
                                                                                

                                                                                
G---7--5--------|----------------------------------4--5--4--------|-------------
D---------5-----|--7-----7--7-------5--6--7-----7-----------5-----|--7-----7----
A------------7--|--------------5h7-----------------------------7--|-------------
E---------------|-------------------------------------------------|-------------
                                                                                

                                                                                
G---------------------------------------|---------------------------------------
D---7-------5--6--7-----7--7-------5h7--|--5-----5--5-------3-----(3)h5--5------
A------5h7--------------------5h7-------|--------------3h5-----5----------------
E---------------------------------------|---------------------------------------
                                                                                

                                                                                
G---------------------|--------------------------------------|------------------
D---5--3--5--3--------|--------------------------------------|------------------
A---------------5--4--|--3-----3--3-----3--3-----3--3--1-----|--1h3--3--3--3----
E---------------------|--------------------------------------|------------------
                                                                                
[ Tab from: http://www.guitartabs.cc/tabs/r/renaissance/spare_some_love_btab_ver_2.html ]
                                                                                
G---------------------------------|-----------------------------|--5--3---------
D---------------------------------|-----------------------------|--------5------
A------3--3--3-----3--3--3--1-----|--3--1-----3--1-----3--1-----|---------------
E---------------------------------|-----------------------------|---------------
                                                                                

                                                 Drums             2:38         
G------------------------------|-----------------|-----------------|------------
D---3--1-----------------------|-----------------|-----------------|------------
A------------3--1--------------|-----------------|-----------------|--3---------
E------------------3--1--2-----|--3--------------|-----------------|------------
                                                                                

                                                                                
G------------|-----------------|--------------3--1--------|--------3--1---------
D------------|-----------------|--------3--1--------------|--------------3------
A------------|--3--------------|--3--1--------------------|---------------------
E------------|-----------------|--------------------------|---------------------
                                                                                

                                  Drums, Guitar     2:57                        
G---------------|-----------------|-----------------|--------14--12------14-----
D---2--1--------|-----------------|-----------------|----------------14---------
A---------3--2--|--1--------------|-----------------|---------------------------
E---------------|-----------------|-----------------|---------------------------
                                                                                

                                                                                
G---12------14--12------14--12------|-------------------------------------------
D-------14----------14----------14--|--7-----7-------5h7--7--5-----5--5---------
A-----------------------------------|-----------5h7-----------------------------
E-----------------------------------|-------------------------------------------
                                                                                

                                                                                
G---------|-----------------------------------------------|---------------------
D---5--5--|--5h7-----7-------5h7--7--5-----5--5-----5--5--|---------------------
A---------|-------------5h7-------------------------------|--0--2--3--5--3------
E---------|-----------------------------------------------|---------------------
                                                                                

                                                                                
G------------------------|--------------------------------------|---------------
D------5--3--2-----------|--------------------5--3--2-----------|---------------
A---2-----------5--3--2--|--0--2--3--5--3--2-----------5--3--2--|--0------------
E------------------------|--------------------------------------|---------------
                                                                                

          Vocals            3:34                                                
G---------|-----------------||------------------------------------------|-------
D---------|-----------------||*--2-----2--2--------------------3--------|--2----
A---------|-----------------||*--3-----3--3-----3--5-----5--5--5--5--5--|--3----
E---------|-----------------||------------------------------------------|-------
                                                                                

                                                                                
G-------------------------------------------||--------------5-------------------
D------5--5--------7-----7-----7--5-----3--*||-----------5-----5----------------
A------7--------7--8-----8-----8--7-----5--*||--3-----3-----------3--5-----5----
E-------------------------------------------||----------------------------------
                                                                                

                                  Guitar            3:55 (w/ wah-wah)           
G---------7-----|-----------------|-----------------|--------------3-----5------
D------7--------|-----------------|-----------------|--------3--5---------------
A------------5--|--3--------------|-----------------|--3------------------------
E---------------|-----------------|-----------------|---------------------------
                                                                                

                                                                                
G------|-------------------------|--------------------|-------------------------
D------|--5----------------5--4--|--3--------3-----5--|--6-----5-----3-----6----
A------|--------3h5--------------|--------3-----------|-------------------------
E------|-------------3-----------|--------------------|-------------------------
                                                                                

                               (wah-wah off)                                    
G------------------|-----------5--------|-----------5--------|------------------
D------5-----3-----|--------------5-----|--------------5-----|------------------
A------------------|--3-----------------|--3-----------------|--3--------5------
E------------------|--------------------|--------------------|------------------
                                                                                

                                                                                
G------------5--7-----5--|-------------------------------------|----------------
D-------5h7--------------|--5----------3--4--5-----5-----5--4--|--3-------------
A---/7-------------------|--------3h5-----------------5--------|--------3h5-----
E------------------------|-------------------------------------|----------------
                                                                                

                                                                                
G---------------------------|--------------------------------------|------------
D---3-----3--------3-----5--|--6-----5-----3-----2-----------------|------------
A------5--------3-----------|--------------------------5-----1-----|--1/3-------
E---------------------------|--------------------------------------|------------
                                                                                

                                                                                
G---------------------------------|-----------------------------5--------|------
D---------------------------------|--------------------------------5-----|------
A---3--3-----3-----3--------1--2--|--3-----3--3-----3--3-----3--------7--|------
E---------------------1--3--------|--------------------------------------|------
                                                                                

                                                                                
G---------------------------4--5--4--------|------------------------------------
D---7-----11\7-----7--7--------------5-----|--5h7--7--7-------5--6--7-----7-----
A---------------------------------------7--|-------------5h7--------------------
E------------------------------------------|------------------------------------
                                                                                

                                                                                
G----------------|------------------------------------------------|-------------
D---7-------5h7--|--5-----5--5-------3--4--5-----5--5-------3--4--|--5-----5----
A------5h7-------|--------------3h5--------------------3h5--------|-------------
E----------------|------------------------------------------------|-------------
                                                                                

                                                                                
G-----------------7--5--3-----------|---------------------------------4--5------
D---5-------3--x-----------7--5--3--|--5h7--7--7-------5--6--7-----7------------
A------3h5--------------------------|-------------5h7---------------------------
E-----------------------------------|-------------------------------------------
                                                                                

                                                                                
G---4--------|----------------------------------------------|-------------------
D------5-----|--5h7--7--7-------5--6--7-----7--7-------5h7--|--5-----5--5-------
A---------7--|-------------5h7--------------------5h7-------|--------------3----
E------------|----------------------------------------------|-------------------
                                                                                

                                                                                
G------------------------------------------|------------------------------------
D-------3-----(3)h5--5--5--(3)h5--3--------|------------------------------------
A---h5-----5-------------------------5--4--|--3---------------------------------
E------------------------------------------|------------------------------------
                                                                                

    Drums Fade Out                                                              
G---||--------------------------------------------------------------------------
D---||--------------------------------------------------------------------------
A---||--------------------------------------------------------------------------
E---||--------------------------------------------------------------------------
                                                                                



================================================================================
==                Created with a demo version of BUCKET O' TAB                ==
==                  tablature creation software for Windows                   ==
==                       http://www.his.com/~gse/bucket                       ==
================================================================================



Comments