Renaissance - Midas Man Chords & Tabs

 

Midas Man Chords & Tabs

Renaissance Chords & Tabs

Version: 1 Type: Tab 0 ratings
1 star 2 stars 3 stars 4 stars 5 stars
comments

Midas Man Tab

   
Renaissance - Midas Man

F#m    F#m7(add4)      F#m        Emaj7                 F#m7(add4)

e------|---5-4---------|---------------|------|-----------|
B--7---|-5-----5-------|---5-4---------|------|-----------|
G------|---------4-4h6-|-4-----4-------|------|-------6---|
D------|---------------|---------4-4h6-|------|-6-7-9-----|
A------|---------------|---------------|------|---------9-|
E------|---------------|---------------|------|-----------|

F#m7(add4)                F#m
Gold -said the man to the many


F#m7(add4)                    F#m
I want money and I'll make it grow

Bm
I will count my worth in gold -wealth untold


Adim7               F#m7(add4) F#m 
I'll sell my soul - Midas      Man



F#m7(add4)                 F#m
Sold - said the man to the many


F#m7(add4)                        F#m
work for me, I'll only steal your time


Bm
I will count my money out, there's no doubt


Adim7               F#m7(add4) F#m
I'll sell my soul - Midas      Man




C#                 F#m
I'll take from the blind and I'll get up


E                       A
ahead and I'll sneak up behind and I'll steal


Bm                         D 
I'll take all you have and then


                 F#m7(add4)
all you've concealed

[ Tab from: http://www.guitartabs.cc/tabs/r/renaissance/midas_man_tab.html ]
C#                       F#m
I'll take anything I can get - I'll make you


E                       A
I'll break you and I'll make you sweat


Bm
nothing is worth nothing unless

     D        F#m7(add4) F#m
it's made for Midas      Man


[instrumental break]
  F#m

e----|------------|------|----|------------|------|
B----|------------|------|----|------------|------|
G----|------------|------|----|------------|------|
D----|------------|------|----|------------|------|
A----|------------|------|----|------------|------|
E--2-|-5--4--2--0-|-4--2-|-2--|-5--4--2--0-|-4--2-|

   A      E

e---------0-|-0--0--0--0--0--0-|-------------------|
B---------0-|-0--0--0--0--0--0-|-------------------|
G---------1-|-1--1--1--1--1--1-|-------------------|
D---------2-|-2--2--2--2--2--2-|-------------------|
A--0------2-|-2--2--2--2--2--2-|-2--4--2-----------|
E-----4---0-|-0--0--0--0--0--0-|---------0-0h2-----|


[repeat introduction]



F#m7(add4)                F#m
Gold -said the man to the many

F#m7(add4)                           F#m
pots of gold, that's all I want from you

Bm
quarter time for treble days the only way

Adim7            F#m7(add4) F#m
sell your soul - Midas      Man


------
chords:
             
F#m7(add4)   244200
Emaj7        066400
F#m          244222
Bm           x24432
Adim7        x03434
D            xx0232
C#           x46664
E            022100
A            x0222x
Comments