Renaissance - I Think Of You Chords & Tabs

 

I Think Of You Chords & Tabs

Renaissance Chords & Tabs

Version: 1 Type: Bass Tab 0 ratings
1 star 2 stars 3 stars 4 stars 5 stars
comments

I Think Of You Bass Tab

                                 I Think of You
                                  Renaissance
                                                      Transcribed by Justin Benz


    Guitar, Vocals    0:31                                                      
G---|--------------------|--------------------|-----------7--------------|------
D---|--------------------|--------7-----------|--------7--------7--------|------
A---|--------------------|--5-----------------|--5--------------------5--|------
E---|-----------------5--|-----------------5--|--------------------------|------
                                                                                

                                                                                
G---------7-----------|----------------------------|-----------7----------------
D---5-----------------|--5-----7--8-----7-----5h7--|--------7--------7----------
A------------------5--|----------------------------|--5--------------------5----
E---------------------|----------------------------|----------------------------
                                                                                

                                                                                
G---|-----------9----------|--------------------|--------------------|----------
D---|--------9--------9\---|--5-----7-----------|--------7-----------|--5-------
A---|--7-------------------|--------------------|--5--------------5--|----------
E---|----------------------|-----------------5--|--------------------|----------
                                                                                

                                                                        0:59    
G-----------------------|--------------------|--------------------------|-------
D---7--8-----7-----5h7--|--------7-----------|--5-----7--8-----7--------|-------
A-----------------------|--5--------------5--|-----------------------0--|--5----
E-----------------------|--------------------|--------------------------|-------
                                                                                

                                                                                
G---------7--------7-----|--7-----7--7--------------|--------7------------------
D------7--------7-----7--|-----7-----------7--------|--5-----------5------------
A------------------------|-----------------------5--|--------------------0------
E------------------------|--------------------------|---------------------------
                                                                                

                                                                                
G---|-----------7--------7-----|--------------------------|-----------7---------
D---|--------7--------7--------|--5-----7--8-----7-----5--|--------7------------
A---|--5--------------------5--|--------------------------|--5------------------
E---|--------------------------|--------------------------|---------------------
                                                                                

                                                                                
G------------|-----------9--------|----------------------|-----------7----------
D---7--------|--------9--------9--|--7--------7-----9\---|--------7--------7----
A---------5--|--7-----------------|----------------------|--5-------------------
E------------|--------------------|----------------------|----------------------
                                                                                

                                                                                
G---|--------7-----------|--------7-----------|--------------------------|------
D---|--7--7-----------7--|--5-----------5--7--|--8-----7--5-----7--8-----|------
A---|-----------5--------|--------------------|--------------------------|------
E---|--------------------|--------------------|--------------------------|------
                                                                                

                                                                                
G------------7--------------|--------------9----------|--------------------|----
D---------7--------7--------|--------9--9--------9\---|--5-----7-----------|----
A---5--------------------5--|--7----------------------|--------------------|----
E---------------------------|-------------------------|-----------------5--|----
                                                                                
[ Tab from: http://www.guitartabs.cc/tabs/r/renaissance/i_think_of_you_btab.html ]
                                                                                
G------------------|--------------------------|-----------------|---------------
D------------7-----|--5-----7--8-----7--------|-----------7-----|--5-----7------
A---5--------------|--------------------------|--5--------------|---------------
E------------------|-----------------------5--|-----------------|---------------
                                                                                

                   1:47                                                         
G------------------|-----------7--------7-----|--7-----7-----------------|------
D---8-----7--------|--------7--------7--------|-----7-----------7--------|------
A------------------|--5-----------------------|-----------5-----------5--|------
E---------------5--|--------------------------|--------------------------|------
                                                                                

                                                                                
G---------------------------|--------------------------|-----------7-----7------
D---5-----7--8-----7--5-----|-----4--5--4--------------|--------7---------------
A---------------------------|--------------5-----5-----|--5---------------------
E---------------------------|-----------------5-----5--|------------------------
                                                                                

                                                                                
G------|--------------------7-----|--------------------4--7--|--6--7--6---------
D---7--|--------7--------7-----7--|--------4--5--5--7--------|-----------7------
A------|--5--------5--------------|--7-----------------------|------------------
E------|--------------------------|--------------------------|------------------
                                                                                

                                                                                
G---------------|-----------7--------|--7-----7---/9-----7--------|--------7----
D---------------|--------7--------7--|-----7----------------9--7--|--5----------
A------7--------|--5-----------------|----------------------------|-------------
E------------5--|--------------------|----------------------------|-------------
                                                                                

                                                   2:19                         
G--------------|-----------------|-----------------|-----------------------|----
D---------5\---|-----------------|-----------------|--------7--------7-----|----
A--------------|--1--------------|-----------------|--5-----------5-----5--|----
E--------------|-----------------|--------------5--|-----------------------|----
                                                                                

                                                                                
G------------9--------------|--------------------|--------------------|---------
D---------9--------9-----7--|--5-----7-----------|--------7-----------|--5------
A---7-----------------------|--------------------|--5--------------5--|---------
E---------------------------|-----------------5--|--------------------|---------
                                                                                

                                                                                
G------------------------||------------------------|----------------------------
D------7--8-----7-----5--||*--------7--7-----------|--5-----7--8-----7-----5----
A------------------------||*--5-----------------5--|----------------------------
E------------------------||------------------------|----------------------------
                                                                                

    Repeat and Fade                                                             
G----||-------------------------------------------------------------------------
D---*||-------------------------------------------------------------------------
A---*||-------------------------------------------------------------------------
E----||-------------------------------------------------------------------------
                                                                                



================================================================================
==                Created with a demo version of BUCKET O' TAB                ==
==                  tablature creation software for Windows                   ==
==                       http://www.his.com/~gse/bucket                       ==
================================================================================




Comments