Remy Zero - Save Me Chords & Tabs

 

Save Me Chords & Tabs

Remy Zero Chords & Tabs

Version: 1 Type: Tab 0 ratings
1 star 2 stars 3 stars 4 stars 5 stars
comments

Save Me Tab

Song: Save Me (Smallville Soundtrack)
Artist: Remy Zero
Tuning: Standard (EBGDAE)
Tabber: Rob Marston (rob@leftatom.com)
Notes: Good song. The guitar's hard to hear and wierd but, you 
guys wanted the tab! Merry Christmas!-lol



Intro:

E-|----------------------|
B-|----------------------|
G-|----8---6---10---13---|
D-|----8---6---10---13---|
A-|----6---4----8---11---|
E-|----------------------|
[ Tab from: http://www.guitartabs.cc/tabs/r/remy_zero/save_me_tab.html ]
E-|-----------------------------------|
B-|---8-8-8---8-8---8---8-8---8-8-8---|
G-|---8-8-8---8-8---8---8-8---8-8-8---|
D-|---6-6-6---6-6---6---6-6---6-6-6---|
A-|-----------------------------------|
E-|-----------------------------------|


Verse:

E-|-----------------------|
B-|---8vvvvvv---6vvvvvv---| Repeat
G-|---8vvvvvv---6vvvvvv---| The little v's mean vibrate or bend
D-|---6vvvvvv---4vvvvvv---| If you have an effect that makes the
A-|-----------------------| sound heard in the song, go for it!
E-|-----------------------|


Chorus:

E-|-------------------|
B-|-------------------| Use these chords, repeat...
G-|---4---6-----------|
D-|---4---6---6---4---|
A-|---6---4---6---4---|
E-|-----------4---2---|



Thats basically the whole song. The way I play it. 
Comments