Remy Zero - Glorious Chords & Tabs

 

Glorious Chords & Tabs

Remy Zero Chords & Tabs

Version: 1 Type: Tab 0 ratings
1 star 2 stars 3 stars 4 stars 5 stars
comments

Glorious Tab

Tabbed by: The Psychiatrist

Tuning: Regular

**Note: notes in braces {} are triplets; 3 dashes between notes means rest for a
beat (between the double 14's)

E||--------------------------------------------------------|
A||--12-12-15-12-------------------------------------------|
D||--------------{13-12-10}-10-h12-13/14---14-13b-10-------|
G||--------------------------------------------------------|
B||--------------------------------------------------------|
E||--------------------------------------------------------|

E||--------------------------------------------------------|
A||--12-12-15-12-------------------------------------------|
D||--------------{13-12-10}-10-h12-13/14---14-17-14-17-19--|
G||--------------------------------------------------------|
B||--------------------------------------------------------|
E||--------------------------------------------------------|
[ Tab from: http://www.guitartabs.cc/tabs/r/remy_zero/glorious_tab.html ]
E||--------------------------------------------------------|
A||--12-12-15-12-------------------------------------------|
D||--------------{13-12-10}-10-h12-13/14---14-13b-10-------|
G||--------------------------------------------------------|
B||--------------------------------------------------------|
E||--------------------------------------------------------|

E||--------------------------------------------------------|
A||--12-12-15-12-------------------------------------------|
D||--------------{13-12-10}-10-h12-{13-12-10}-10-h12-{13-12|
G||--------------------------------------------------------|
B||--------------------------------------------------------|
E||--------------------------------------------------------|

E||-------------X-X-X-X-X-X-X---X-X-X-X-X------------------|
A||-------------X-X-X-X-X-X-X---X-X-X-X-X------------------|
D||--10}-10-h12-X-X-X-X-X-X-X---X-X-X-X-X------------------|
G||-------------X-X-X-X-X-X-X---X-X-X-X-X------------------|
B||-------------X-X-12X-12X-12--X-X-15X-15-----------------|
E||-------------X-X-X-X-X-X-X---X-X-X-X-X------------------|
Comments