Remy Zero - Fair Chords & Tabs

 

Fair Chords & Tabs

Remy Zero Chords & Tabs

Version: 1 Type: Tab

Fair Tab

   
x=muted
h=hammer on

VERSE
E-----------------------------------------------------------------------------|
B-----------------------------------------------------------------------------|
G-----------------------------------------------------------------------------|
D-2-2-2-2-2-2-2-2-4-4-4-4-4-4-4-4-2-2-2-2-2-2-2-2-4-4-4-4-4-4-4-4-2-2-2-2-2-2-|
A-0-0-0-0-0-0-0-0-2-2-2-2-2-2-2-2-0-0-0-0-0-0-0-0-2-2-2-2-2-2-2-2-0-0-0-0-0-0-|
D-----------------------------------------------------------------0-0-0-0-0-0-|
[ Tab from: http://www.guitartabs.cc/tabs/r/remy_zero/fair_tab.html ]
E-----------------------------------------------------------------------------|
B-----------------------------------------------------------------------------|
G-----------------------------------------------------------------------------|
D-2-2-4-4-4-4-4-4-4-4-5-5-5-5-5-5-5-5-5-5-5-5-5-5-5-5-2-2-2-2-2-2-2-2-4-4-4-4-|
A-0-0-2-2-2-2-2-2-2-2-3-3-3-3-3-3-3-3-5-5-5-5-5-5-5-5-0-0-0-0-0-0-0-0-2-2-2-2-|
D-0-0---------------------------------5-5-5-5-5-5-5-5-0-0-0-0-0-0-0-0---------|

E----------------------------------------------------------------------------|
B----------------------------------------------------------------------------|
G----------------------------------------------------------------------------|
D-4-4-4-4-5-5-5-5-5-5-5-5-7-7-7-7-7-7-7-7-2-2-2-2-2-2-2-2-4-4-4-5------------|
A-2-2-2-2-5-5-5-5-5-5-5-5-7-7-7-7-7-7-7-7-0-0-0-0-0-0-0-0-4-4-4-5------------|
D---------5-5-5-5-5-5-5-5-7-7-7-7-7-7-7-7-0-0-0-0-0-0-0-0-4-4-4-5------------|

CHORUS
E-----------------------------------------------------------------------------|
B--7--------7--------7--------7--------7--------7--------7--------7-------7---|
G-7-h8-----7-h8-----7-h8-----7-h8-----7-h8-----7-h8-----7-h8-----7-h8----7----|h8
D-----------------------------------------------------------------------------|
A-----------------------------------------------------------------------------|
D-----------------------------------------------------------------------------|