Remy Shand - Rocksteady Chords & Tabs

 

Rocksteady Chords & Tabs

Remy Shand Chords & Tabs

Version: 2 Type: Bass Tab 0 ratings
1 star 2 stars 3 stars 4 stars 5 stars
comments

Rocksteady Bass Tab

   
Artist: Remy Shand
Song: Rocksteady
Album: Rocksteady
Tabbed by: James Pucyk (Pucyk_James@hotmail.com)

Intro    Verse (With Verse one Sample lyrics)
 2/2  Tell me how baby        Could it open my eyes..        For
G|------|-------------|-------------|-------------|-------------|
D|------|-------------|-------------|-------------|-------------|
A|-R----|-------------|-------------|-------------|-------------|
E|----02|-55-55-55-55-|-55-55-55-55-|-33-33-33-33-|-33-33-33-33-|
   Q.+    \4/4 time/

   the Night...         It took me by surprise
                                                  Oh what..                                              
G|-------------|-------------|-------------|------------------|
D|-------------|-------------|-------------|------------------|
A|-------------|-------------|-------------|-------2\3\5-5/7\-|
E|-55-55-55-55-|-55-55-55-55-|-33-33-33-33-|-33-33------------|
[ Tab from: http://www.guitartabs.cc/tabs/r/remy_shand/rocksteady_btab_ver_2.html ]
   Love me do...               
                  What ever..                 That is why..
G|--------------|-------------|--------------|---------|
D|--7-----------|-------------|--5-----------|---------|
A|--------------|-------------|--------------|-2-2-1-1-|
E|-5-5-55-55-55-|-55-55-55-55-|-3-3-33-33-33-|---------|

                                           __________
Chorus                                    | 1.       |
G|------------|----------------|----------|----------|
D|0--7--------|-7--------------|----------|---------0|
A|0----4-7-4--|-----4-7-7\6/7\-|-2-2-2-02-|-2-2-1-1-0|
E|-5--------5-|---5------------|----------|----------|
   1 2
  _________
 |-2.      | Time..    Love...        You...
G|---------|---------|--------------|-----------------0-|-23232-0----------|
D|---------|---------|--------------|------------0--2---|---------23232-0--|
A|-4-2-0---|---------|--------------|-----0-1-2---------|------------------|
E|-------4-|-0-2-3-5-|-0---0/5\4/5\-|-3-----------------|------------------|
                       Q+E.


Song Structure:
Intro (Warm-up)
Verse 1
Chorus
Verse 2
Chorus
Solo (Use the First 4 and last 4 bars of the verse)
Chorus (to fade)

FIN
Comments