Remnant - Jerusalem Chords & Tabs

 

Jerusalem Chords & Tabs

Remnant Chords & Tabs

Version: 1 Type: Tab 0 ratings
1 star 2 stars 3 stars 4 stars 5 stars
comments

Jerusalem Tab

   
Song Title: Jerusalem
Artist: Remnant
Album: Mask of Happiness
Tabbed by: T. Maxwell (timmax@hotmail.com)
DROPPED-D TUNING: D-A-D-G-B-E

SIGNS:
h: Hammer-on
p: Pick-up
(#): Ghost note
X: Mute String
/: Slide Down
\: Slide Up
P.M.: Palm Mute; ..: Carrying on palm mute
(H): Hold
v~: Vibrato
~: Hit once and fade out
h.: Harmonic

CHORDS:
Cm: (verse) 10-10-13-X-X-X	Eb5: (verse) X68XXX
Ab5(9): 6688XX			Eb5: (chorus) 1113XX
Bb5: X133XX				Cm: (chorus) X3554X
Cm: (bridge) 10-10-13-X-X-11	Bb: 8-8-8-10-X-10
Ab: 6668X8				C5: X355XX

Intro: [clean gtr. w/delay and panner)
  Cm      Eb5  Ab5(9)           Cm      Eb5  Ab5(9)
|-----------------------------|------------------------------|
|-----------------------------|------------------------------|
|-----------------------------|------------------------------|
|-----13\---8----8------8---8-|------13\---8----8------8---8-|
|---10----6--------6-----6----|----10----6--------6-----6----|
|-10-----------6------6---6---|-/10-----------6------6---6---|
                                                    (Figure 1)
  Cm      Eb5  Ab5(9)           Cm      Eb5  Ab5(9)
|------------------------------|------------------------------|
|------------------------------|------------------------------|
|------------------------------|------------------------------|
|------13\---8----8------8---8-|------13\---8--8-8------8---8-|
|----10----6--------6-----6----|----10----6----6---6-----6----|
|-/10-----------6------6---6---|-/10-----------6------6---6---|

Verse 1: (Figure 1)
Cm      Eb5          Ab5(9)          Cm
God, we wait for the day, for you to come
       Eb5     Ab5(9)              Cm
How we long to enter into Your kingdom
Eb5    Ab5(9)                      Cm       Eb5             Ab5(9)
Not my will, Lord, but thy will be done, is what we need to pray
Cm        Eb5           Ab5(9) Cm      Eb5                Ab5(9)~
Cause the Son of Man is coming, no one knows the hour nor day

Chorus:
Eb5~           Bb5~
As we wait for Jesus to come, 
           Cm~                     Ab5(9)~
we look up to the sky, and see the new Jerusalem
Eb5~           Bb5~
As we wait for Jesus to come, 
           Cm~                     Ab5(9)~
we look up to the sky, and see the new Jerusalem
[ Tab from: http://www.guitartabs.cc/tabs/r/remnant/jerusalem_tab.html ]
  Cm      Eb5  Ab5(9)           Cm      Eb5  Ab5(9)
|------------------------------|------------------------------|
|------------------------------|------------------------------|
|------------------------------|------------------------------|
|------13\---8----8------8---8-|------13\---8--8-8------8---8-|
|----10----6--------6-----6----|----10----6----6---6-----6----|
|-/10-----------6------6---6---|-/10-----------6------6---6---|

Verse 2: (Figure 1)
Cm       Eb5             Ab5(9)
He'll be coming with his angels in the clouds
Cm  Eb5            Ab5(9)                Cm  Eb5 Ab5(9) 
And those that are heaven bound will the trumpet sound
Cm Eb5             Ab5(9)               Cm
A gift for you and I, a gift of eternal life
   Eb5           Ab5(9)
If only we would die to self, 
Cm   Eb5            Ab5(9)               Cm   Eb5 Ab5(9) (Figure 2)
then Jesus would be right by our side to give us all the help

Figure 2 [distortion]
       P.M..
||--------------------|
||--------------------|
||--------------------|
||-8---8-------8---8\-|
||-6---6-6-6---6---6\-|
||-6---6-6-6---6---6\-|

Chorus:
Eb5            Bb5
As we wait for Jesus to come, 
           C5                      Ab5(9)
we look up to the sky, and see the new Jerusalem
Eb5            Bb5 
As we wait for Jesus to come, 
           C5                      Ab5(9)
we look up to the sky, and see the new Jerusalem

Bridge:
Cm               Bb          Ab
We need to focus on the Lord tonight
Cm                   Bb            Ab
We need to know what it's going to take
Cm                  Bb                         Ab
Are we gonna please ourselves, or are we gonna reach for souls
Cm             Bb                     Ab5(9)~
The question is what decision will we make?

Chorus:
[no music]------------------
As we wait for Jesus to come, 
------------------------------------------------
we look up to the sky, and see the new Jerusalem

  As we wait for Jesus to come, we
  Eb5             Bb5
|---------------------------------|
|---------------------------------|
|---------------------------------|
|-1-1-1-1-1-1-1-1-0-0-1-1-0-0-1-1-|
|-1-1-1-1-1-1-1-1-1-1-1-1-1-1-1-1-|
|-1-1-1-1-1-1-1-1-----------------|
           
 look up to the sky, and see the new Jerusalem
  C5                    Ab5(9)
|----------------------------------------------|
|----------------------------------------------|
|----------------------------------------------|
|-0-0-1-1-0-0-1-1-X-X---8(H)----------------8\-|
|-3-3-3-3-3-3-3-3-X-X---6(H)----------------6\-|
|-----------------------6(H)----------------6\-|

| Eb5            Bb5                               |
| As we wait for Jesus to come,                    |
|            C5                      Ab5(9)        |
| we look up to the sky, and see the new Jerusalem |
| Eb5            Bb5                               |
| As we wait for Jesus to come,                    |
|            C5                      Ab5(9)        | Repeat
| we look up to the sky, and see the new Jerusalem | Several Times

Outro:
Eb5~
As we wait for Jesus to come, 

we look up to the sky, and see the new Jerusalem
Comments