Reminition - I Dont Owe Anyone Chords & Tabs

 

I Dont Owe Anyone Chords & Tabs

Reminition Chords & Tabs

Version: 1 Type: Tab 0 ratings
1 star 2 stars 3 stars 4 stars 5 stars
comments

I Dont Owe Anyone Tab

song: i dont owe anyone
artist: reminition
e-mail: reminition@hotmail.com

Introduction

e|-----------------------------------------------------------|
b|-----------------------------------------------------------|
g|-----------------------------------------------------------|
d|--3-/-5-5-5-5-5-5-5--3-/-5-5-5-5-5-5-5--3-/-5-5-5-5-5-5-5--|
a|--3-/-5-5-5-5-5-5-5--3-/-5-5-5-5-5-5-5--3-/-5-5-5-5-5-5-5--|
e|--1-/-3-3-3-3-3-3-3--1-/-3-3-3-3-3-3-3--1-/-3-3-3-3-3-3-3--|

e|-----------------|
b|-----------------|
g|--5--4--3-3-3-3--|
d|--5--4--3-3-3-3--|
a|--3--2--1-1-1-1--|
e|-----------------|

Verse
[ Tab from: http://www.guitartabs.cc/tabs/r/reminition/i_dont_owe_anyone_tab.html ]
e|----------------------------------------------------------------------|
b|----------------------------------------------------------------------|
g|--9-9-9-9-9-9-9-9-----------------------------------------------------|
d|--9-9-9-9-9-9-9-9--9-9-9-9-9-9-9-9--7-7-7-7-7-7-7-7--9-9-9-9-9-9-9-9--|
a|--7-7-7-7-7-7-7-7--9-9-9-9-9-9-9-9--7-7-7-7-7-7-7-7--9-9-9-9-9-9-9-9--|
e|-------------------7-7-7-7-7-7-7-7--5-5-5-5-5-5-5-5--7-7-7-7-7-7-7-7--|

Chorus

e|--------------------------------------------------------------|
b|--------------------------------------------------------------|
g|--7-7-7-7-7-7-7-----------------------------------------------|
d|--7-7-7-7-7-7-7--7-7-7-7-7-7-7--5-5-5-5-5-5-5--9--8--7-7-7-7--|
a|--5-5-5-5-5-5-5--7-7-7-7-7-7-7--5-5-5-5-5-5-5--9--8--7-7-7-7--|
e|-----------------5-5-5-5-5-5-5--3-3-3-3-3-3-3--7--6--5-5-5-5--|

Intro x2
Chorus x2
Verse x4
Chorus x2
Verse x4
Chorus x2
Interlude x2
Chorus x4

Comments