Remember Maine - Broken Chords & Tabs

 

Broken Chords & Tabs

Remember Maine Chords & Tabs

Version: 1 Type: Tab 0 ratings
1 star 2 stars 3 stars 4 stars 5 stars
comments

Broken Tab

Band: Remember Maine (http://www.remembermaine.com)
Title: Broken
Tabber: Andrew Biles

I don't really know much about this band, but Andrew (Fatkidsonmopeds) asked if someone
could tab this so I thought I'd give it a shot.  It's mainly based around F & G, and
pretty simple strumming structure, you've just got to remember all the different little
pieces.  I think I've got it pretty much right, and it's all in order, so see what you think.

|-5---3---1--
|-6---3---1--
|-5---4---2--
|---------3--
|---------3--
|------------ x1

|-3----1-
|-3----1-
|-4----2-
|-5----3-
|-5----3-
|-------- x3

|-5---3---1--
|-6---3---1--
|-5---4---2--
|---------3--
|---------3--
|------------ x1

|-5---3------------------1-
|-6---3---10--11--10--8--1-
|-5---4---9---10--9---7--2-
|------------------------3-
|------------------------3-
|-------------------------- x1

|-5---3---1--
|-6---3---1--
|-5---4---2--
|---------3--
|---------3--
|------------ x2

(palm mute E string notes)
|-------3-3-3--------3-3-3--------1-1-1--------1-1-1-
|-------3-3-3--------3-3-3--------1-1-1--------1-1-1-
|-------0-0-0--------0-0-0--------2-2-2--------2-2-2-
|----------------------------------------------------
|----------------------------------------------------
|-3-3-3--------3-3-3--------1-1-1--------1-1-1------- x1

|-------3-3-3-------3-3-3--1-
|-------3-3-3-------3-3-3--1-
|-------0-0-0-------0-0-0--2-
|--------------------------3-
|--------------------------3-
|-3-3-3-------3-3-3---------- x1
[ Tab from: http://www.guitartabs.cc/tabs/r/remember_maine/broken_tab.html ]
|-3----5----3----1-
|-3----6----3----1-
|-4----5----4----2-
|-5---------5----3-
|-5---------5----3-
|------------------ x1
                 ^play more than the other chords

|-5-----------3----1-
|-6---11--10--3----1-
|-5---10--9---4----2-
|------------------3-
|------------------3-
|-------------------- x2

|-3---5-5---5-5---5----5-5--3---1-
|-3---6-6---6-6---6----6-6--3---1-
|-4---5-5---5-5---5----5-5--4---2-
|-5-------------------------5---3-
|-5-------------------------5---3-
|--------------------------------- x1

|-5-----------3----1-
|-6---11--10--3----1-
|-5---10--9---4----2-
|------------------3-
|------------------3-
|-------------------- x1

|-5---3---1--
|-6---3---1--
|-5---4---2--
|---------3--
|---------3--
|------------ x1

|-5---3---5---3---1-
|-6---3---6---3---1-
|-5---4---5---4---2-
|-----------------3-
|-----------------3-
|------------------- x1

|-5---3---1--
|-6---3---1--
|-5---4---2--
|---------3--
|---------3--
|------------ x2

any questions? andrewbiles@hotmail.com
____________________________
Lyrics (www.plyrics.com):

What do you need?
How this waiting game is killing me.
Oh, so painfully challenging now that I'm on my own.
We've made our remarks, stuck to the scene.
Package is parceled,
withholding my dreams and we know they go slow.
Promise me you won't let go.

You say words; meaningless, empty.
Broken, I dream of a of a girl that can handle with care,
and who won't take me for granted.
And who won't rip out my eyes when I cry over you...
Falling down my cheek, my sweet, my heart, it dies,
it falls as we sing the songs of "I miss you's."

I miss you.

Broken, broken, broken...Cursive would blast through my ears.
Through these veins, accompany my tears.
Promise me you won't let go.
You say words; meaningless, empty.
Broken, I dream of a girl.
Comments