Remember August - Save Our Lives Chords & Tabs

 

Save Our Lives Chords & Tabs

Remember August Chords & Tabs

Version: 1 Type: Tab 0 ratings
1 star 2 stars 3 stars 4 stars 5 stars
comments

Save Our Lives Tab

   
==========
GUITAR
==========

Intro (0:00) w/ distortion

  (D)
E|----------------|----------------|
B|----------------|----------------|
G|7-7-7-7-7-7-7-7-|7-7-7-7-7-------|
D|x-x-x-x-x-x-x-x-|x-x-x-x-x-------|
A|5-5-5-5-5-5-5-5-|5-5-5-5-5-------|
E|----------------|----------------|

  (D)                               (A)
E|----------------|----------------|----------------|----------------|
B|----------------|----------------|----------------|----------------|
G|7-7-7-7-7-7-7-7-|7-7-7-7-7-7-7/9-|7-7-7-7-7-7-7-7-|6-6-6-6-6-6-6-6-|
D|x-x-x-x-x-x-x-x-|x-x-x-x-x-x-x-x-|x-x-x-x-x-x-x-x-|x-x-x-x-x-x-x-x-|
A|5-5-5-5-5-5-5-5-|5-5-5-5-5-5-5/7-|5-5-5-5-5-5-5-5-|5-5-5-5-5-5-5-5-|
E|----------------|----------------|----------------|----------------|

  (B)                               (G)
E|----------------|----------------|----------------|----------------|
B|----------------|----------------|----------------|----------------|
G|7-7-7-7-7-7-7-7-|6-6-6-6-6-6-6---|4-4-4-4-4-4-4-4-|4-4-4-4-4--/1414|
D|x-x-x-x-x-x-x-x-|x-x-x-x-x-x-x---|x-x-x-x-x-x-x-x-|x-x-x-x-x---x-x-|
A|5-5-5-5-5-5-5-5-|5-5-5-5-5-5-5-0-|5-5-5-5-5-5-5-5-|5-5-5-5-5--/1212|
E|----------------|----------------|----------------|----------------|

  (D)
E|------------------------|------------------------|
B|------------------------|------------------------|
G|14-14-14-14-14-14-14-14-|14-14-14-14-14-14-14/16-|
D|x--x--x--x--x--x--x--x--|x--x--x--x--x--x--x--x--|
A|12-12-12-12-12-12-12-12-|12-12-12-12-12-12-12/14-|
E|------------------------|------------------------|

  (A)
E|------------------------|------------------------|
B|------------------------|------------------------|
G|14-14-14-14-14-14-14-14-|14-14-14-14-14-14/16/19-|
D|x--x--x--x--x--x--x--x--|x--x--x--x--x--x--x--x--|
A|12-12-12-12-12-12-12-12-|12-12-12-12-12-12/14/17-|
E|------------------------|------------------------|

  (B)
E|------------------------|------------------------|
B|------------------------|------------------------|
G|19-19-19-19-19-19-19-19-|18-18-18-18-18-18-------|
D|x--x--x--x--x--x--x--x--|x--x--x--x--x--x--------|
A|17-17-17-17-17-17-17-17-|17-17-17-17-17-17-17-0--|
E|------------------------|------------------------|

  (G)
E|------------------------|------------------------|
B|------------------------|------------------------|
G|16-16-16-16-16-16-16-16-|16-16-16-16-16----------|
D|x--x--x--x--x--x--x--x--|x--x--x--x--x-----------|
A|17-17-17-17-17-17-17-17-|17-17-17-17-17----0-----|
E|------------------------|------------------0-----|



1st Verse (0:23)

  D5
E|----------------|
B|----------------|
G|7~--------------|
D|7~--------------|
A|5~--------------|
E|----------------|


w/ clean tone

  D5                                G
E|----------------|----------------|----------------|----------------|
B|----------------|----------------|----------------|----------------|
G|----7-------7---|----7-------7---|----7-------7---|----7-------7---| 
D|--7---7---7---7-|--7---7---7---7-|--7---7---7---7-|--7---7---7---7-|
A|5-------5-------|5-------4-------|----------------|----------------|
E|----------------|----------------|3-------3-------|3-------3-------|

  D5                                G
E|----------------|----------------|----------------|----------------|
B|----------------|----------------|----------------|----------------|
G|----7-------7---|----7-------7---|----7-------7---|----7-------7---| 
D|--7---7---7---7-|--7---7---7---7-|--7---7---7---7-|--7---7---7---7-|
A|5-------5-------|4-------4-------|----------------|----------------|
E|----------------|----------------|3-------3-------|3-------3-------|



Chorus (0:44) w/ distortion

      B5             G5             (D)              (A)
E|----------------|----------------|----------------|----------------|
B|----------------|----------------|----------------|----------------|
G|----7---7-------|7-7-----7-------|7-7-7-7-7-7-7-7-|7-7-7-7-7-7-7-7/|
D|----7---7-------|7-7---x-7-------|7-7-7-7-7-7-7-7-|7-7-7-7-7-7-7-7/|
A|----5---5-------|5-5---x-5-------|5-5-5-5-5-5-5-0-|7-7-7-7-7-7-7-7/|
E|----7---7-------|7-3---x-3-------|----------------|5-5-5-5-5-5-5-5/|

  (B)              (G)              (D)              (A)
E|----------------|----------------|----------------|----------------|
B|----------------|----------------|----------------|----------------|
G|7-7-7-7-7-7-7-7-|7-7-7-7-7-7-7-7-|7-7-7-7-7-7-7-7-|7-7-7-7-7-7-7-7/|
D|7-7-7-7-7-7-7-7-|7-7-7-7-7-7-7-7-|7-7-7-7-7-7-7-7-|7-7-7-7-7-7-7-7/|
A|5-5-5-5-5-5-5-5-|5-5-5-5-5-5-5-5-|5-5-5-5-5-5-5-0-|7-7-7-7-7-7-7-7/|
E|7-7-7-7-7-7-7-7-|3-3-3-3-3-3-3-3-|----------------|5-5-5-5-5-5-5-5/|

      B5             G5             (D)              (A)
E|----------------|----------------|----------------|----------------|
B|----------------|----------------|----------------|----------------|
G|----7---7-------|7-7-----7-------|7-7-7-7-7-7-7-7-|7-7-7-7-7-7-7-7/|
D|----7---7-------|7-7---x-7-------|7-7-7-7-7-7-7-7-|7-7-7-7-7-7-7-7/|
A|----5---5-------|5-5---x-5-------|5-5-5-5-5-5-5-0-|7-7-7-7-7-7-7-7/|
E|----7---7-------|7-3---x-3-------|----------------|5-5-5-5-5-5-5-5/|

  (G)              E5               (D)              (A)
E|----------------|----------------|----------------|----------------|
B|----------------|----------------|----------------|----------------|
G|----------------|----------------|7-------7-------|7-------7---7-7-|
D|5-------5---5-5-|5-------5---5-5/|7-------7---0-0-|7-------7---7-7-|
A|5-------5---5-5-|2-------2---2-2/|5-------5---0-0-|7-------7---7-7-|
E|3-------3---3-3/|0-------0---0-0-|----------------|5-------5---5-5-|



2nd Verse (1:04)
[ Tab from: http://www.guitartabs.cc/tabs/r/remember_august/save_our_lives_tab.html ]
  D5
E|----------------|----------------|
B|----------------|----------------|
G|----------------|--------7-------|
D|7-7-7-7-7-7-7-7-|7-7-7-7-7-------|
A|5-5-5-5-5-5-5-5-|5-5-5-5-5-------|
E|----------------|----------------|
  . . . . . . . .  . . . .
  D5                                G5
E|----------------|----------------|----------------|----------------|
B|----------------|----------------|----------------|----------------|
G|----7-------7---|----7-------7---|----------------|----------------|
D|7-7-7---7-7-7---|7-7-7---7-7-7---|----7-------7---|----7-------7---|
A|5-5-5---5-5-5---|5-5-5---4-4-4---|5-5-5---5-5-5---|5-5-5---5-5-5---|
E|----------------|----------------|3-3-3---3-3-3---|3-3-3---3-3-3---|
  . .     . .      . .     . .      . .     . .      . .     . .
  D5                                G5
E|----------------|----------------|----------------|----------------|
B|----------------|----------------|----------------|----------------|
G|----7-------7---|----7-------7---|----------------|----------------|
D|7-7-7---7-7-7---|7-7-7---7-7-7---|----7-------7---|----7-----7---7-|
A|5-5-5---5-5-5---|4-4-4---4-4-4---|5-5-5---5-5-5---|5-5-5---5-5---5-|
E|----------------|----------------|3-3-3---3-3-3---|3-3-3---3-3---3-|
  . .     . .      . .     . .      . .     . .      . .     .
  D5                                G5
E|----------------|----------------|----------------|----------------|
B|----------------|----------------|----------------|----------------|
G|----7-------7---|----7-------7---|----------------|----------------|
D|7-7-7---7-7-7---|7-7-7---7-7-7---|----7-------7---|----7-------7---|
A|5-5-5---5-5-5---|5-5-5---4-4-4---|5-5-5---5-5-5---|5-5-5---5-5-5---|
E|----------------|----------------|3-3-3---3-3-3---|3-3-3---3-3-3---|
  . .     . .      . .     . .      . .     . .      . .     . .
  D5                                G5
E|----------------|----------------|----------------|----------------|
B|----------------|----------------|----------------|----------------|
G|----7-------7---|----7-------7---|----------------|----------------|
D|7-7-7---7-7-7---|7-7-7---7-7-7---|----------------|----------------|
A|5-5-5---5-5-5---|5-5-5---4-4-4---|5-5-5-5-5-5-5-5-|5-5-5-5-5-5-5-5-|
E|----------------|----------------|3-3-3-3-3-3-3-3-|3-3-3-3-3-3-3-3-|
  . .     . .      . .     . .      . . . . . . . .  . . . . . . . . 



Repeat Chorus (1:28)

2nd guitar part over "Save Our Lives" part of chorus.

  (G)              E5               (D)              (A)
E|----------------|----------------|----------------|----------------|
B|----------------|----------------|----------------|----------------|
G|7-------7---7-7/|4-------4------/|11------11------|9-------9-------|
D|x-------x---x-x-|x-------x-------|x-------x---0-0-|x-------x-------|
A|5-------5---5-5/|2-------2------/|9-------9---0-0-|7-------7-------|
E|----------------|----------------|----------------|----------------|


Bridge - Clean (1:48)

(Measures expanded 2x)

Play 3 times: w/ clean tone

  Bm7              A4               G                E7
E|0---------------|0---------------|0---------------|----------------|
B|5---------------|0---------------|0---------------|----------------|
G|7---------------|6---------------|x---------------|----------------|
D|7~--------------|7~--------------|7~--------------|7~-----7~-------|
A|x~--------------|7~--------------|5~--------------|5~-----5~-------|
E|7~--------------|5~--------------|3~--------------|0~-----3~-------|


Come in 3rd time, play twice: (clean tone)

  Bm7              A4               G                E7
E|--10--9---7---5-|--10--9---7---5-|--10--9---7---5-|--10--9---7---5-|
B|----------------|----------------|----------------|----------------|
G|----------------|----------------|----------------|----------------|
D|----------------|----------------|----------------|----------------|
A|----------------|----------------|----------------|----------------|
E|----------------|----------------|----------------|----------------|


Bridge - Dirty (2:25) 

(Measures expanded 2x)

Play 2 times: w/ distortion

  Bm7              A4               G                E7
E|0-0-0-0-0-0-0-0-|0-0-0-0-0-0-0-0-|----------------|----------------|
B|5-5-5-5-5-5-5-5-|0-0-0-0-0-0-0-0-|----------------|----------------|
G|7-7-7-7-7-7-7-7-|6-6-6-6-6-6-6-6-|----------------|----------------|
D|7-7-7-7-7-7-7-7-|7-7-7-7-7-7-7-7-|7-7-7-7-7-7-7-7-|7-7-7-7-7-7-7-7-|
A|x-x-x-x-x-x-x-x-|7-7-7-7-7-7-7-7-|5-5-5-5-5-5-5-5-|5-5-5-5-5-5-5-5-|
E|7-7-7-7-7-7-7-7-|5-5-5-5-5-5-5-5-|3-3-3-3-3-3-3-3-|0-0-0-0-3-3-3-3-|

  Bm7              A4               G                E7
E|00--0-0-0-0-0-0-|0-0-0-0-0-0-0-0-|----------------|----------------|
B|55--5-5-5-5-5-5-|0-0-0-0-0-0-0-0-|----------------|----------------|
G|77--7-7-7-7-7-7-|6-6-6-6-6-6-6-6-|----------------|----------------|
D|77--7-7-7-7-7-7-|7-7-7-7-7-7-7-7-|7-7-7-7-7-7-7-7/|5---4---7-------|
A|xx--x-x-x-x-x-x-|7-7-7-7-7-7-7-7-|5-5-5-5-5-5-5-5/|2---5---5-------|
E|77--7-7-7-7-7-7-|5-5-5-5-5-5-5-5-|3-3-3-3-3-3-3-3/|0---2---3-------|
  ..  .

Chorus

2nd guitar: Last "Save Our Lives" Part of Chorus 4x (2:46)


  (G)              E5               (D)              (A)
E|----------------|----------------|----------------|----------------|
B|----------------|----------------|----------------|----------------|
G|7-------7---7-7/|4-------4------/|11------11------|9-------9-------|
D|x-------x---x-x-|x-------x-------|x-------x---0-0-|x-------x-------|
A|5-------5---5-5/|2-------2------/|9-------9---0-0-|7-------7-------|
E|----------------|----------------|----------------|----------------|

  (G)              E5               (D)              (A)
E|----------------|----------------|----------------|----------------|
B|----------------|----------------|----------------|----------------|
G|7-------7---7-7/|4-------4------/|11------11------|9-------9-------|
D|x-------x---x-x-|x-------x-------|x-------x---0-0-|x-------x-------|
A|5-------5---5-5/|2-------2------/|9-------9---0-0-|7-------7-------|
E|----------------|----------------|----------------|----------------|

  (G)              E5               (D)              (A)
E|----------------|----------------|----------------|----------------|
B|----------------|----------------|----------------|----------------|
G|7-------7---7-7/|9-------9---9-9/|11------11------|12------12------|
D|x-------x---x-x-|x-------x---x-x-|x-------x---0-0-|x-------x-------|
A|5-------5---5-5/|7-------7---7-7/|9-------9---0-0-|10------10------|
E|----------------|----------------|----------------|----------------|

  (G)              E5               (D)              (A)
E|----------------|----------------|----------------|----------------|
B|----------------|----------------|----------------|----------------|
G|14------14--1414|16------16--1616|19------19------|18------18------|
D|x-------x---x-x-|x-------x---x-x-|x-------x---0-0-|x-------x-------|
A|12------12--1212|14------14--1414|17------17--0-0-|16------16------|
E|----------------|----------------|----------------|----------------|


w/ clean tone

  G5               E5               D5
E|----------------|----------------|----------------|
B|----------------|----------------|3~--------------|
G|----------------|----------------|2~--------------|
D|5~--------------|5---------------|0~--------------|
A|5~--------------|2~--------------|----------------|
E|3~--------------|0~--------------|----------------|
Comments